Song name
# A B C D E F G H I J K L M N O P Q R S T U V W X Y Z

Four Year Strong - Heroes Get Remembered Legends Never Die tab

Artist: Four Year Strong
Song: Heroes Get Remembered, Legends Never Die
Album: Rise or Die Trying
Tuning: Dropped D

KEY:
    * = Pinch Harmonic
    v = Vibrato
   [x]= Natural Harmonic
    b = bend

Note: The other tab was decent, but not decent enough by my standards. I had figured 
song out a while ago, but had gotten too lazy
to tab it out, but I believe everyone deserves to know how to play this, so with that, I 
you Heroes.
P.S: I don't mean to come off as being cocky if that is what some of you imply=P

STRUMMING SHOWN THROUGHOUT!

Intro:
|----------------|----------------|----------------|----------------|
|----------------|----------------|----------------|----------------|
|----------------|----------------|----------------|----------------|
|------------4---|----------5-----|------------4---|----------------|
|000-00000-----7-|--000-000---9---|000-00000-----7-|----5--/7---5v--|
|000-00000-------|--000-000-------|000-00000-------|--0---0---------|

                                   /   Second Guitar    \
|----------------|----------------|---------------------|----------------|
|----------------|----------------|---------------------|----------------|
|----------------|----------------|---------------------|----------------|
|------------4---|----------5-----|xx11-11-xx9---11--9--|xx4-4-xx5-5-----|
|000-00000-----7-|--000-000---9---|xx12-12-xx12--12--12-|xx7-7-xx9-9-10\-|
|000-00000-------|--000-000-------|---------------------|------------10\-|

|----------------|----------------|----------------|----------------|
|----------------|----------------|----------------|----------------|
|----------------|----------------|----------------|----------------|
|------------4---|----------5-----|------------4---|----------------| x2
|000-00000-----7-|--000-000---9---|000-00000-----7-|----5--/7---5v--|
|000-00000-------|--000-000-------|000-00000-------|--0---0---------|

Verse:
|----------------|----------------|----------------|----------------|
|----------------|----------------|----------------|----------------|
|----------------|----------------|----------------|----------------|
|----------------|----------------|----------------|----------------|
|00000-----0-00--|----------------|00000-----0-0-00|----------------|
|00000-----0-00--|----------------|00000-----0-0-00|4-5-7-5---4*v---|

|----------------|----------------|----------------|----------------|
|----------------|----------------|----------------|----------------|
|----------------|7*b-------------|----------------|----------------|
|----------------|----------------|----------------|----------------|
|00005*v---0-0---|--------00-00-00|00000-----0-0-00|----------------|
|0000------0-0---|--------00-00-00|00000-----0-0-00|4-5-7-5---4*v---|

|----------------|----------------|----------------|----------------|
|----------------|----------------|----------------|----------------|
|----------------|----------------|----------------|----------------|
|----------------|----------------|----------------|----------------|
|00005*v---0-0---|----------------|00000-----0-0-00|----------------|
|0000------0-0---|----------------|00000-----0-0-00|4-5-7-5---4*v---|

|----------------|----------------|----------------|----------------|
|----------------|----------------|----------------|----------------|
|----------------|7*b-------------|----------------|----------------|
|----------------|----------------|----------------|----------------|
|00005*v---0-0---|--------00-00-00|00000-----0-0-00|--------0---0---|
|0000------0-0---|--------00-00-00|00000-----0-0-00|4-5-7---0---0---|

Pre-Chorus:
|----------------|----------------|----------------|----------------|
|----------------|----------------|----------------|----------------|
|----------------|----------------|----------------|----------------|
|5-5-5-5-5-5-5-5-|7-7-7-7-7-7-7-7-|9-9---------9-9-|----------------|
|5-5-5-5-5-5-5-5-|7-7-7-7-7-7-7-7-|9-9---------9-9-|--------9-7-x-5-|
|5-5-5-5-5-5-5-5-|7-7-7-7-7-7-7-7-|9-9---------9-9-|--------9-7-x-5-|

|----------------|----------------|----------------|----------------|
|----------------|----------------|----------------|----------------|
|----------------|----------------|----------------|----------------|
|--5-5-5-5-5-5-5-|7-7-7-7-7-7-7---|----------------|----------------|
|--5-5-5-5-5-5-5-|7-7-7-7-7-7-7---|----------------|--------00-00-00|
|--5-5-5-5-5-5-5-|7-7-7-7-7-7-7-00|2-0-0-5-0-0-2-0-|0-7-0-0-00-00-00|

Chorus:
|----------------|----------------|----------------|----------------|
|----------------|----------------|----------------|----------------|
|----------------|----------------|----------------|----------------|
|------------4---|----------5-----|------------4---|----------------|
|000-00000-----7-|--000-000---9---|000-00000-----7-|----5--/7---5v--|
|000-00000-------|--000-000-------|000-00000-------|--0---0---------|

|----------------|----------------|----------------|
|----------------|----------------|----------------|
|----------------|----------------|----------------|
|------------4---|----------5-----|----------------|
|000-00000-----7-|--000-000---9---|00009---7----/7\|
|000-00000-------|--000-000-------|00009---7----/7\|

Verse 2:
|----------------|----------------|----------------|----------------|
|----------------|----------------|----------------|----------------|
|----------------|----------------|----------------|----------------|
|----------------|----------------|----------------|----------------|
|00000-----0-00--|----------------|00000-----0-0-00|----------------|
|00000-----0-00--|----------------|00000-----0-0-00|4-5-7-5---4*v---|

|----------------|----------------|----------------|----------------|
|----------------|----------------|----------------|----------------|
|----------------|7*b-------------|----------------|----------------|
|----------------|----------------|----------------|----------------|
|00005*v---0-0---|--------00-00-00|00000-----0-0-00|----------------|
|0000------0-0---|--------00-00-00|00000-----0-0-00|4-5-7-5---4*v---|

|----------------|----------------|----------------|----------------|
|----------------|----------------|----------------|----------------|
|----------------|----------------|----------------|----------------|
|----------------|----------------|----------------|----------------|
|00005*v---0-0---|----------------|00000-----0-0-00|----------------|
|0000------0-0---|----------------|00000-----0-0-00|4-5-7-5---4*v---|

|----------------|----------------|----------------|----------------|
|----------------|----------------|----------------|----------------|
|----------------|7*b-------------|----------------|----------------|
|----------------|----------------|----------------|----------------|
|00005*v---0-0---|--------00-00-00|00000-----0-0-00|----------------|
|0000------0-0---|--------00-00-00|00000-----0-0-00|4-5-7-5---4*v---|

Pre-Chorus

Chorus:
|----------------|----------------|----------------|----------------|
|----------------|----------------|----------------|----------------|
|----------------|----------------|----------------|----------------|
|------------4---|----------5-----|------------4---|----------------| x2
|000-00000-----7-|--000-000---9---|000-00000-----7-|----5--/7---5v--|
|000-00000-------|--000-000-------|000-00000-------|--0---0---------|

|----------------------|------------------------|----------------------|------------------|
|----------------------|------------------------|----------------------|------------------|
|----------------------|------------------------|----------------------|------------------|

x2
|000-00000-------------|----000-000-------------|000-00000-------------|------5--/7---5v--|
|000-00000-[3]-[3]-[3]-|[3]-000-000-[3]-[3]-[3]-|000-00000-[3]-[3]-[3]-|[3]-0---0---------|

Interlude: (hold an open note, or play this:)
|----------------|----------------|----------------|----------------|
|----------------|----------------|----------------|----------------|
|7-7-7-7-7-7-7-7-|7-7-7-7-6-6-6-6-|4-4-4-4-4-4-4-4-|4-4-4-4-4-4-4-4-|
|0-0-0-0-0-0-0-0-|0-0-0-0-0-0-0-0-|0-0-0-0-0-0-0-0-|0-0-0-0-0-0-0-0-| x4
|----------------|----------------|----------------|----------------|
|----------------|----------------|----------------|----------------|

|----------------|----------------|----------------|----------------|
|----------------|----------------|----------------|----------------|
|----------------|----------------|----------------|----------------|
|----------------|----------------|----------------|----------------|
|000-00000-------|--000-000-------|000-000012\---00|----------------|
|000-00000-------|--000-000-------|000-000012\---00|4-5-7-5---4*v---|

|----------------|----------------|----------------|----------------|
|----------------|----------------|----------------|----------------|
|----------------|----------------|----------------|----------------|
|----------------|----------------|----------------|----------------|
|000-00005*v-----|--000-000-------|000-000012\---00|----------------|
|000-0000--------|--000-000-------|000-000012\---00|4-5-7-5---4*v---|

|----------------|----------------|----------------|----------------|
|----------------|----------------|----------------|----------------|
|----------------|----------------|----------------|----------------|
|----------------|----------------|----------------|----------------|
|000-00005\------|--000-000-------|000-000012\---00|----------------|
|000-0000--------|--000-000-------|000-000012\---00|4-5-7-5---4*v---|

|----------------|----------------|----------------|----------------|
|----------------|----------------|----------------|----------------|
|----------------|----------------|----------------|--[5]-----------|
|----------------|----------------|----------------|--[5]-----------|
|000-00005*b-----|--000-000-------|000-0000--------|0---------------|
|000-0000--------|--000-000-------|000-0000--------|0---------------|

Breakdown:
|----------------|----------------|----------------|----------------|
|----------------|----------------|----------------|----------------|
|----------------|----------------|----------------|----------------|
|----------------|----------------|----------------|----------------|
|00-00-----00-00-|00-00-----------|00-00-----00-00-|00-00---00--00--|
|00-00-----00-00-|00-00-----------|00-00-----00-00-|00-00---00--00--|

|----------------|----------------|----------------|----------------|
|----------------|----------------|----------------|----------------|
|----------------|--------5*v-----|----------------|----------------|
|----------------|----------------|----------------|----------------|
|00-00-----00-00-|00-00-------7*v-|00-00-----00-00-|00-00---00--00--|
|00-00-----00-00-|00-00-----------|00-00-----00-00-|00-00---00--00--|

Chorus:
|----------------|----------------|----------------|----------------|
|----------------|----------------|----------------|----------------|
|----------------|----------------|----------------|----------------|
|------------4---|----------5-----|------------4---|----------------| x2
|000-00000-----7-|--000-000---9---|000-00000-----7-|----5--/7---5v--|
|000-00000-------|--000-000-------|000-00000-------|--0---0---------|

|----------------|----------------|----------------|----------------|
|----------------|----------------|----------------|----------------|
|----------------|----------------|----------------|----------------|
|-----------4----|----------5-----|------------4---|----------------|
|000-00000----7*v|--000-000---9---|000-00000-----7-|----5--/7---5v--|
|000-00000-------|--000-000-------|000-00000-------|--0---0---------|

|----------------|----------------|----------------|----------------|
|----------------|----------------|----------------|----------------|
|----------------|----------------|----------------|----------------|
|------------4---|----------5-----|------------4---|----------------|
|000-00000-----7-|--000-000---9---|000-00000-----7-|----5--/7---5v--|
|000-00000-------|--000-000-------|000-00000-------|--0---0---------|

|----------------|
|----------------|
|----------------|
|----------------|
|000-00000-------|
|000-00000-------|
Tap to rate this tab
# A B C D E F G H I J K L M N O P Q R S T U V W X Y Z