Song name
# A B C D E F G H I J K L M N O P Q R S T U V W X Y Z

Fozzey And Vanc - Perfect Couple tab

The riff varies during the song but these are the two parts played.

e|-5--4--5--2-----1--2------|
B|-7--5--7--3--2--2--3------|
G|-------------2------------|
D|--------------------------|
A|--------------------------|
E|--------------------------|


e|-5-7--9--4--5--2-----1--2------|
B|-7-9-10--5--7--3--2--2--3------|
G|------------------2------------|
D|-------------------------------|
A|-------------------------------|
E|-------------------------------|
Tap to rate this tab
 
# A B C D E F G H I J K L M N O P Q R S T U V W X Y Z