Song name
# A B C D E F G H I J K L M N O P Q R S T U V W X Y Z

Fozzy - Sandpaper tab

-------------------------------------------------------------------------------
                             Sandpaper - Fozzy ft. M.Shadows
-------------------------------------------------------------------------------
Tabbed by: Dirk Vissers
E-mail: dirkvissers@hotmail.com

I think the original is played in dAFCGD but this is just how I played it.

Tuning:
EADGBe

e|----------------------------------------------------|
B|----------------------------------------------------|
G|----------------------------------------------12\7--|
D|-2-----h2-----h2-----5/7----2-----h2----h2----12\7--|
A|-2-----h2-----h2-----5/7----2-----h2----h2----10\5--|
E|-0-xxx-0-xxx--0--xxx-3/5----0-xxx-0-xxx-0-xxx-------|

e|-------------------------------------|
B|-------------------------------------|
G|-55555555-77777777-44444444-55555555-|
D|-55555555-77777777-44444444-55555555-|
A|-33333333-55555555-22222222-33333333-|
E|-------------------------------------|

e|-------------------------------------------------|
B|-------------------------------------------------|
G|-55555555-77777777-44444444-55555555---7---7-9\--|
D|-55555555-77777777-44444444-55555555---7---7-9\--|
A|-33333333-55555555-22222222-55555555-x-5-x-5-7\--|
E|-------------------------------------------------|

e|-------------------------------------------------|
B|-------------------------------------------------|
G|-------------------------------------------------|
D|-h2-h2-h2----2--2--3---h2-h2-h2----2--2--3--2\---|
A|-h2-h2-h2--22-22-22----h2-h2-h2--22-22-22---2\---|
E|-0--0--0--0------------0--0--0--0-----------0----|

e|--------------------------------------|
B|--------------------------------------|
G|---7--9\--------7--9\--------7--9\----|
D|---7--9\--------7--9\--------7--9\----|
A|-x-5--7\------x-5--7\------x-5--7\----|
E|--------------------------------------|

e|-------------------------------------|
B|-------------------------------------|
G|-55555555-77777777-44444444-55555555-|
D|-55555555-77777777-44444444-55555555-|
A|-33333333-55555555-22222222-33333333-|
E|-------------------------------------|

e|-------------------------------------|
B|-------------------------------------|
G|-55555555-77777777-44444444-55555555-|
D|-55555555-77777777-44444444-55555555-|
A|-33333333-55555555-22222222-33333333-|
E|-------------------------------------|

e|-------------------------------------|
B|-------------------------------------|
G|-55555555-77777777-44444444-55555555-|
D|-55555555-77777777-44444444-55555555-|
A|-33333333-55555555-22222222-33333333-|
E|-------------------------------------|


e|--77/88------------------77/88---------------|
B|--xx-xx-12-12br-10~-8-7~-xx-xx-12-12br-10~~--|
G|--44/55------------------44/55---------------|  2X
D|---------------------------------------------|
A|---------------------------------------------|
E|---------------------------------------------|

e|---------------------|
B|--7--7br-5~-5h7p5\3--|
G|---------------------|
D|---------------------|
A|---------------------|
E|---------------------|

e|-------------------------------------|
B|-------------------------------------|
G|-55555555-77777777-44444444-55555555-|
D|-55555555-77777777-44444444-55555555-|
A|-33333333-55555555-22222222-33333333-|
E|-------------------------------------|

e|-------------------------------------|
B|-------------------------------------|
G|-55555555-77777777-44444444-55555555-|
D|-55555555-77777777-44444444-55555555-|
A|-33333333-55555555-22222222-33333333-|
E|-------------------------------------|

e|-------------------------------------|
B|-------------------------------------|
G|-55555555-77777777-44444444-55555555-|
D|-55555555-77777777-44444444-55555555-|
A|-33333333-55555555-22222222-33333333-|
E|-------------------------------------|

e|---------------------------------------------|
B|---------------------------------------------|
G|-55555555-77777777-44444444-55555555---7---7-|
D|-55555555-77777777-44444444-55555555---7---7-|
A|-33333333-55555555-22222222-55555555-x-5-x-5-|
E|---------------------------------------------|

e|-------------------------------------------------|
B|-------------------------------------------------|
G|-------------------------------------------------|
D|-h2-h2-h2----2--2--3---h2-h2-h2----2--2--3--2\---|
A|-h2-h2-h2--22-22-22----h2-h2-h2--22-22-22---2\---|
E|-0--0--0--0------------0--0--0--0-----------0----|

e|-------------------------------------------------|
B|-------------------------------------------------|
G|-------------------------------------------------|
D|-h2-h2-h2----2--2--3---h2-h2-h2----2--2--3--2\---|
A|-h2-h2-h2--22-22-22----h2-h2-h2--22-22-22---2\---|
E|-0--0--0--0------------0--0--0--0-----------0----|

e|-----------------------------------|
B|-----------------------------------|
G|---------------------------------2-|
D|-22---2--2--2--3---22---2--3--5----|  3X
A|-22-22-22-22-22----22-22-22-22-22--|
E|-00----------------00--------------|

e|-------------------------------|
B|-------------------------------|
G|-------------------------------|
D|-22---2--2--2--2---22---2------|
A|-22-22-22-22-22----22-22-20----|
E|-00----------------00------0---|



************************************

| /   slide up
| \   slide down
| h   hammer-on
| p   pull-off
| ~   vibrato
| +   harmonic
| x   Mute note
| b   Bend
| pb  Pre-bend
| br  Bend release
| pbr Pre-bend release
| brb Bend release bend

************************************
Tap to rate this tab
# A B C D E F G H I J K L M N O P Q R S T U V W X Y Z