Song name
# A B C D E F G H I J K L M N O P Q R S T U V W X Y Z

Frampton Peter - Baby I Love Your Way tab

Help us improve GuitareTab! Take a short survey!
-------------------------------------------------------------------------------
			     BABY I LOVE YOU WAY - Peter Frampton
-------------------------------------------------------------------------------
Tabbed by: Nikhil M
Email: nikhil_merchant@hotmail.com

Tuning:STANDARD

Intro :lead

e|-----------------------------------------------------------------------------|
B|-----------------------------------------------------------------------------|
G|---14b^r--12--14--12---------------------------------------------------------|
D|------------------------14---------------------------------------------------|
A|-----------------------------------------------------------------------------|
E|-----------------------------------------------------------------------------|

e|-----------------------------------------------------------------------------|
B|-----------------------------------------------------------------------------|
G|----12--14--14--12-----------------------------------------------------------|
D|---------------------14------------------------------------------------------|
A|-----------------------------------------------------------------------------|
E|-----------------------------------------------------------------------------|

e|-----------------------------------------------------------------------------|
B|-------------12--------------------------------------------------------------|
G|----12--14-------14----------------------------------------------------------|
D|-----------------------------------------------------------------------------|
A|-----------------------------------------------------------------------------|
E|-----------------------------------------------------------------------------|

 Chorus

e|-----------------------------------------------------------------------------|
B|-----------------------------------------------------------------------------|
G|-----14b^-----14b^r---12--14-----------------14--12--------------------------|
D|-------------------------------------------------------14--------------------|
A|-----------------------------------------------------------------------------|
E|-----------------------------------------------------------------------------|

  Solo1 :

e|-----------------------------------------------------------------------------|
B|--------15---15b^r15--13--12h13p12-----------12h13p12------------------------|
G|---12----------------------------------------------------14-12-14b^r14-12----|
D|-----------------------------------------------------------------------------|
A|-----------------------------------------------------------------------------|
E|-----------------------------------------------------------------------------|

e|-----------------------------------------------------------------------------|
B|----------------12--13-------------------------------------------------------|
G|---11--12--14-----------14---------------------------------------------------|
D|-----------------------------------------------------------------------------|
A|-----------------------------------------------------------------------------|
E|-----------------------------------------------------------------------------|

  Solo2:

e|-------------------------------------------------12--15--15b^--15--12h15p12----|
B|-----------------------------------------12--15--------------------------------|
G|---14b^---14b^r--12--11----11--12--14------------------------------------------|
D|-------------------------------------------------------------------------------|
A|-------------------------------------------------------------------------------|
E|-------------------------------------------------------------------------------|

e|-----15--15b^--15--12--15-15-12-15-12----13h15p13--12h13--15-----------------|
B|-----------------------------------------------------------------13----------|
G|-----------------------------------------------------------------------------|
D|-----------------------------------------------------------------------------|
A|-----------------------------------------------------------------------------|
E|-----------------------------------------------------------------------------|

e|------------------15--17--17b^--17b^r--15-14-15-14-15-17--17b^--15------------|
B|----13--15b^-13-------------------------------------------------------17------|
G|------------------------------------------------------------------------------|
D|------------------------------------------------------------------------------|
A|------------------------------------------------------------------------------|
E|------------------------------------------------------------------------------|

e|-------12--15--19b^--15-17-15-17-17^b--15--17--15-17b^r--15--17----------------|
B|---15--------------------------------------------------------------------------|
G|-------------------------------------------------------------------------------|
D|-------------------------------------------------------------------------------|
A|-------------------------------------------------------------------------------|
E|-------------------------------------------------------------------------------|

not sure about the 19b^

| /  slide up
| \  slide down
| h  hammer-on
| p  pull-off
| ~  vibrato
| +  harmonic
| x  Mute note
===============================================================================
Related for Baby I Love Your Way tab