Song name
# A B C D E F G H I J K L M N O P Q R S T U V W X Y Z

Frampton Peter - Breakin All The Rulez tab

Help us improve GuitareTab! Take a short survey!
#


From rodrigo.rocha@u-netsys.com.br Thu May  8 13:53:40 1997
Date: Sat, 29 Mar 1997 20:48:34 -0300
From: Rodrigo Monte Rocha 
To: guitar@olga.net
Subject: TAB: Peter Frampton; Breakin all the rulez

    [The following text is in the "ISO-8859-1" character set]
    [Your display is set for the "US-ASCII" character set]
    [Some characters may be displayed incorrectly]

Here is the TAB to "Breakin all the Rules" by Peter Frampton.
This is my favorite music to listen and to play, but, not to forever, 
i'm take this TAB, in my school of Eletric Guitar, and i'm go put on OLGA,

In this TAB, you can use Slide, bend, hammer and etc.
MAKE YOUR CHOISE!!!!

Here we Go!


E|-------------------------------------|---------------------------------|--
---------------
B|-------------------------------------|---------------------------------|--
----------------
G|-------------------------------------|---------------------------------|--
----------------
D|-------------------------------------|---------------------------------|--
----------------
A|------5-7-7-5-7--- 5-7-7 5 5-|------5-7-7-5-7-5----5-5-7-|-----5-7-7-5-7
E|---7--------------
7----------------|--7------------------7-3-3-5-|--7--------------


E|--------------------|-----------------------------------------------------
-------
B|--------------------|-----------------------------------------------------
----------
G|--------------------|-----------------------------------------------------
-----------
D|-----------7-5-5--|----------5--------------------------------------------
--------
A|-----5-7-----------|----5-7----7-5-7-5-----7-7-9--------------------------
---
E|--7-----------------|-7---------------------7-
5-5-7----------------------------


Cy@

Rodrigo Monte Rocha
rodrigo.rocha@rush.u-netsys.com.br
Related for Breakin All The Rulez tab