Song name
# A B C D E F G H I J K L M N O P Q R S T U V W X Y Z

Francis Scott Key - Star Spangled Banner tab

This is my first tab. Hope you guys like it!!!


e-------------------------------------------------------------------------|
B----------------------9--7----------------9--7---------------------------|
G-------------------9-------9--------------------9--8--6--8--9--9---------|X2
D----9--6-----6--9------------6--8--9--9--9------------------------9--6---|
A----------7-------------------------------------------------------------6|
E-------------------------------------------------------------------------|

e---------------------------------------------------------------------------|
B--8--8--8--9--11--11--9--8------8--9--9--9--8------------------------------|
G----------------------------10-----------------9--7--6--6--8--9--9---------|
D--------------------------------------------------------------------9--6---|
A--------------------------------------------------------------------------6|
E---------------------------------------------------------------------------|

e-----------------------------------------------|
B-----------------------------9--10--9----------|
G--------9--9--9--8--6--6--6------------11--9--8|
D--9--9-----------------------------------------|
A-----------------------------------------------|
E-----------------------------------------------|

e------------------------------------------|
B-----------7--9--10--12-----7--9--10--7---|
G--------9----------------9---------------9|
D--9--9------------------------------------|
A------------------------------------------|
E------------------------------------------|
Tap to rate this tab
 
# A B C D E F G H I J K L M N O P Q R S T U V W X Y Z