Guitaretab - guitar tabs
Song name
# A B C D E F G H I J K L M N O P Q R S T U V W X Y Z

Francis Scott Key - Star Spangled Banner tab

this is my first tab and i am certain it is 100% correct, but if there are ant typos or 
then please correct me, i look forward to comments ^_^ enjoy, \m/_Rock On-Dark Guitarist_\m/
*=let ring (length of ring varies but you can figure it out by ear how long)


1----------------12--------------------12*-------------------------------------|
2-----------13*----15-13------------------15-13-12*----12-13-13----------------|
3-12------12-----------------12*--12-12--------------14--------12--------------|
4---14--14--------------14-16------------------------------------14------------|
5-----15-----------------------------------------------------------15----------|
6------------------------------------------------------------------------------|
^----------------------------------repeat--------------------------------------|
[ Tab from: http://www.guitaretab.com/f/francis-scott-key/126239.html ]
-12-12-12-13-15-15*--13-12--12-13-13*--13-12*--------------------------------|
--------------------------15-----------------15-13-12*---12-13---------------|
------------------------------------------------------14----------12*--------|
-------------------------------------------------------------14-16-----------|
-----------------------------------------------------------------------------|
-----------------------------------------------------------------------------|

----------------------------13-12----------------------|
---13-13-13-12------------15-----15*-13-13*-12*--------|
-12-------------14-14-14*------------------------------|
-------------------------------------------------------|
-------------------------------------------------------|
-------------------------------------------------------|

-------------12-13-15*------12*-13---------------------|
------13*-15----------13-15-------15*--13*-------------|
-12-12-------------------------------------------------|
-------------------------------------------------------|
-------------------------------------------------------|
-------------------------------------------------------|
Related for Star Spangled Banner tab
Star Spangled Banner chords by Francis Scott Key