Song name
# A B C D E F G H I J K L M N O P Q R S T U V W X Y Z

Francisco Tarrega - Study tab

TRANSCRIPCION DE: EDGAR LOPEZ
CORREO: cartablanca_evitaelexeso@hotmail.com


Ke roio!! a todos bueno mi nombre es Edgar soy guitarrista de guitarra
klasika jeje ;p y ps aki les dejo una kancion de Francisco Tarrega
no muy komplikada pero solo praktikenla :p esta es la version 100% korrekta
asi ke alguna duda ahio esta mi korreo jeje :p


e-0------3-----3------3-----2-----2-------5-----3-----2------|
B---0------0-----0------1-----1-----1-------4-----4-----4----|
G-----0------0-----0------2-----2-----2-------2-----2-----2--|
D------------------------------------------------------------|
A---------------------0-------------------2------------------|
E-0----------------------------------------------------------|

1.______1er final_______/2.____________/
e-7-----7-----7-------||-------0--0-----|
B---0-----0-----0-----||----------0-----|
G-----0-----0-----0---||----------0-----|.
D---------------------||----------------|.
A---------------------||----------------|
E-0-------------------||-------0--------|


e-0------3------7------7------5------8-------2------3------5-----|
B---0------0------0------5------5------5-------1------1------3---|
G-----0------0------0------5------5------5-------2------2------5-|
D----------------------------------------------------------------|
A----------------------0---------------------0-------------------|
E-0--------------------------------------------------------------|


e-5------2------7-------|
B---0------0------0-----|
G-----0------0------0---| Aki se repite todo desde el komienzo y es
D-----------------------| toda la kancion jeje :P
A-----------------------|
E-2---------------------|

Espero y les haya gustado aunk no tiene errores la vdd jeje :P
Tap to rate this tab
 
# A B C D E F G H I J K L M N O P Q R S T U V W X Y Z