Song name
# A B C D E F G H I J K L M N O P Q R S T U V W X Y Z

Franja De Gaza - Darkness Be My Friend tab

Darkness be my Friend ( Franja de Gaza Version ) 

E |----------------------------------------------5p3-3-----2-----0----|
B |----------1p0----------------3p1----------0---------0-----0-----0--|
G |------2----------0-------0---------0----0---0---------0-----0------|
D |----2---2------2-------2---2-----2---------------------------------|
A |--0------------------3---------------------------------------------|
E |--------------------------------------3-----------0-----0-----0----| x2

E |-----------------|-----------------|--------5p3-----|----------------|
B |----------1p0----|---------3p1-----|----0---------0-|--------1p0-----|
G |------2--------0-|-----0---------0-|--0---0-----0---|-----2--------2-|
D |----2---2----2---|---2---2-----2---|----------------|---2--2-----2---|
A |--0--------------|-3---------------|----------------|-0--------------|
E |-----------------|-----------------|-3--------------|----------------| x2
   Cold sunlight falling on me

E |---------1-----|-3-----1----0-1-0--|---------|-------|----------------|
B |-----3-----3---|---3-----2---------|-------1-|-----1-|--------1p0-----|
G |---2---2-----2-|-----2-----------3-|-----0---|----0--|----2-------2---|
D |-0-------------|-------------------|---2-----|--0----|--2---2-------2-|
A |---------------|-------------------|-3-------|2------|0---------------|
E |---------------|-------------------|---------|-------|----------------|
    I am a lonely man,                              sorrow is my friend

E |-----------------|-----------------|--------5p3-----|----------------|----------|
B |----------1p0----|---------3p1-----|----0---------0-|--------1p0-----|--------1-|
G |------2--------0-|-----0---------0-|--0---0-----0---|-----2--------2-|-----2----|
D |----2---2----2---|---2---2-----2---|----------------|---2--2-----2---|---2--2---|
A |--0--------------|-3---------------|----------------|-0--------------|-0--------|
E |-----------------|-----------------|-3--------------|----------------|----------|
    Fall asleep as the dawn comes up, a ray of hope again

E |---------1-------|-----------------|-----------------|---------3p1-0-1--------|
B |-----3-----3---3-|---------1-------|---------1-------|-----3------------------|
G |---2---2-----2---|-----2-----2---2-|-----0-----0---0-|---2---2----------------|
D |-0---------------|---3---3-----3---|---2---2-----2---|-0----------------------|
A |-----------------|-----------------|-3---------------|------------------------|
E |-----------------|-1---------------|-----------------|------------------------|
Hold a crystal vision, for a second, let it pass
	   
E |---------1-------|-----------------|-----------------|---------1--------------|
B |-----3-----3---3-|---------1-------|---------3p1-----|-----3-----3--3---------|
G |---2---2-----2---|-----2-------2---|-----0---------0-|---2---2-----2----------|
D |-0---------------|---3---3---3---3-|---2---2-----2---|-0----------------------|
A |-----------------|-----------------|-3---------------|------------------------|
E |-----------------|-1---------------|-----------------|------------------------|
Hold a crystal vision, for a moment make it last

E |--------3--------|--------3--------|-----------------|----------1p0-----------|
B |----------3---3--|-----3-----------|-----------------|------3-------3---------|
G |-----3-----------|-3----3---3------|-----2-------2---|----2---2-------2-------|
D |---5--------5----|---5--------5----|---3---3---3---3-|--0---------------------|
A |-----------------|-----------------|-----------------|------------------------|
E |-3---------------|-----------------|-1-------0-------|------------------------|
Summers so quickly gone, darkness be my friend

E |---------1-------|-----------------|-----------------|---------3p1-0-1--------|
B |-----3-----3---3-|---------1-------|---------3p1-----|-----3---3--------------|
G |---2---2-----2---|-----2-----2---2-|-----0---------0-|---2---2----------------|
D |-0---------------|---3---3-----3---|---2---2-----2---|-0----------------------|
A |-----------------|-----------------|-3---------------|------------------------|
E |-----------------|-1---------------|-----------------|------------------------|
Nothing lasts forever, but the certainty of change
Solo

E |---------1-------|-----------------|-----------------|---------3p1-0-1--------|
B |-----3-----3---3-|---------1-------|---------3p1-----|-----3---3--------------|
G |---2---2-----2---|-----2-----2---2-|-----0---------0-|---2---2----------------|
D |-0---------------|---3---3-----3---|---2---2-----2---|-0----------------------|
A |-----------------|-----------------|-3---------------|------------------------|
E |-----------------|-1---------------|-----------------|------------------------|

E |---------1-------|-----------------|-----------------|---------3p1-0-1-|---------3p1-0---|
B |-----3-----3---3-|---------1-------|---------3p1-----|-----3---3-------|-----3---3---3---|
G |---2---2-----2---|-----2-----2---2-|-----0---------0-|---2---2---------|---2---2-------0-|
D |-0---------------|---3---3-----3---|---2---2-----2---|-0---------------|-0---------------|
A |-----------------|-----------------|-3---------------|-----------------|-----------------|
E |-----------------|-1---------------|-----------------|-----------------|-----------------|


E |--------3--------|------------3----|-----------------|----------1p0-----------|
B |----------3---3--|--------------3--|-----------------|------3-------3---------|
G |-----3-----------|-3---3-----------|-----2-------2---|----2---2-------2-------|
D |---5--5-----5----|---5---5---------|---3---3---3---3-|--0---------------------|
A |-----------------|-----------------|-----------------|------------------------|
E |-3---------------|----------3------|-1-------0-------|------------------------|
I am a lonely man, sorrow is my friend

E |---------1-------|-----------------|-----------------|---------1--------------|
B |-----3-----3---3-|---------1-------|---------3p1-----|-----3-----3---3 -------|
G |---2---2-----2---|-----2-----2---2-|-----0---------0-|---2---2-----2----------|
D |-0---------------|---3---3-----3---|---2---2-----2---|-0----------------------|
A |-----------------|-----------------|-3---------------|------------------------|
E |-----------------|-1---------------|-----------------|------------------------|
Nothing lasts forever, but the certainty of change

E |---------1-------|-----------------|-----------------|---------1---1--1----1--|
B |-----3-----3---3-|---------1-------|---------3-------|-----3---------------3--|
G |---2---2-----2---|-----2-----2---2-|-----0-----0---0-|---2---2---2---2--2--2--|
D |-0---------------|---3---3-----3---|---2---2-----2---|-0-------------------0--|
A |-----------------|-----------------|-3---------------|---------------------0--|
E |-----------------|-1---------------|-----------------|------------------------|
Nothing lasts forever, but the certainty of change
Tap to rate this tab
# A B C D E F G H I J K L M N O P Q R S T U V W X Y Z