Song name
# A B C D E F G H I J K L M N O P Q R S T U V W X Y Z

Frank Ocean - Forrest Gump tab

 -------------------------------------------------------------------------------
                             Forrest Gump - Frank Ocean
-------------------------------------------------------------------------------

Tuning: Standard

Sorry if this isn't 100% correct. I learned this by ear. Enjoy!

Chords played throughout song:

e|-------------x-----x-----x-----x------------------------------------------|
B|---7----5----7-----5-----6-----5------------------------------------------|
G|-------------7-----6-----7-----6------------------------------------------|
D|-------------7-----7-----7-----7------------------------------------------|
A|-------------5-----7-----5-----7------------------------------------------|
E|-------------x-----5-----x-----5------------------------------------------|


Guitar arrangement/solo:

...Come on, come on. My fingertips...
e|-------------------/9-------------------------/7-----7---/9--------------------|
B|----------------10---7------10-7-10-------------------------10-----------------|
G|-------------------------------------------------------------------------------|       
D|-------------------------------------------------------------------------------|
A|-------------------------------------------------------------------------------|
E|-------------------------------------------------------------------------------|

************************************

| /   slide up
| \   slide down
| h   hammer-on
| p   pull-off
| ~   vibrato
| +   harmonic
| x   Mute note
| b   Bend
| pb  Pre-bend
| br  Bend release
| pbr Pre-bend release
| brb Bend release bend

************************************
Tap to rate this tab
# A B C D E F G H I J K L M N O P Q R S T U V W X Y Z