Song name
# A B C D E F G H I J K L M N O P Q R S T U V W X Y Z

Frank Ocean - Non Stop chords

Highlighted       Show chord diagrams
[Intro / Lead] 

E|------8----12-12-10-8-----8----12-12-10-8--------------------|
B|--10----10-------------10---10-------------------------------|
G|-------------------------------------------------------------|
D|-------------------------------------------------------------|
A|-------------------------------------------------------------|
E|-------------------------------------------------------------|


E|------8~-----------8-8------------------------------------------|
B|--10--------10-10-----------------------------------------------|
G|----------------------------------------------------------------|
D|----------------------------------------------------------------|
A|----------------------------------------------------------------|
E|----------------------------------------------------------------|

[Verse]
        C                           Am            G
Im knocking on your door, and its cold, yes its cold
         F                   G               F          C
But I brought your favorite flowers, teddy bear and a card
                                  Am            G 
Cause I know that loving me is a chore, its a chore
    F                   G                F               C
But I wont stop loving you thats for sure, thats for sure

[Chorus]
      C                  
You could open your window baby
Am             G
And ask me to go away
            F       G            C
But theres no way, no how Ill stop loving you
           Em      D      C     
Its none stop, Oh no, oh no, oh no
          Em       D     C      
It wont stop, Oh no, oh no, oh no
               Em         D         C          Am
This love is gonna keep going, it aint gonna slow
           Em      D       C      
Its none stop, Oh no, oh no, oh no

[Verse 2]
C                            Am            G
sat down in my car, not to leave, just to park
F                     G                F              C
Im still not losing hope, though the sky is getting dark
C                  Am            G           F 
I wish youd just peak out the blinds to my heart
          G                       F
But you turned your bedroom light on
         C              Am
Well at least thats a start

[Chorus] 
Tap to rate this tab
# A B C D E F G H I J K L M N O P Q R S T U V W X Y Z