Frank Turner - Outdoor Type chords

Highlighted       Show chord diagrams
A fun F.Turner song, I play it differently to the version listed here. Also, This 
is my first tab, I know its not 100%, i'm not sure of the proper chord names and 
not sure how the tabbing is suppose to work (But i think it sounds okay!) So any 
constructive comments very welcome! :)
 
-------------------------------------------------------------------------------
			     OUTDOOR TYPE - FRANK TURNER
-------------------------------------------------------------------------------
Tabbed by: ASAYAKE
Tuning: Standard, No Capo

Chords Used:

C   - 032013
G/c - 320013
Am  - x02213
F   - 133211
G   - 320033
Em  - 022010 or 020010
Em2 - 020030
C/G - 332033
Csus4- 033011

If just playing using chords hammer on the B string for the repeated Am chord. (Am x02203)

Intro:
C G Am Am x2

   C         G           Am
e|-----3---------3--- -------3------3----:
B|-------1-0-------1- 0--------0-1---1-0-:
G|--------0---------0 ----------2-2---2--:
D|-2-2--------------- ---2-2-------2-----:
A|-3-3----3--2-2----2h3-p0-0----0-----0--:
E|-----------3-3----- -------------------:

  C         G           Am
e|-----3---------3--- -------3-------3----|
B|-------1-1-------1- 1--------1-01-1-1-1-|
G|--------0---------0 ----------2--2---2--|
D|-2-2--------------- ---2-2--------------|
A|-3-3----3--2-2----2h3-p0-0----0------2--|
E|-----------3-3----- --------------------|


Verse1:
C            G/c
Always had a roof above me
Am           Am
Always paid the rent
C 	G/c       Am            Am
But I've never set foot inside a tent
F	     G       C    Em Am
Can't build a fire to save my life
F            G         F  C-Em2 C
I lied about being the outdoor type


(Fill: Start on 8th fret of High E string or play Chord C with variation)

Verse2:
C 	  G/c	          Am          Am
Well I've never slept out underneath the stars,
C 	           G/c          Am              Am
The closest that I came to that was one time my car
F		  G	      C     Em    Am
Broke down for an hour in the suburbs at night
F	     G         F       C
I lied about being the outdoor type.


Bridge:
C/G                                               G
Too scared to let you know you knew what you were looking for
               F                                G
I lied until I fit the bill. God bless the great indoors.
F            G         G      F
I lied about being the outdoor type
F                 F                Csus4            G
I've never owned a sleeping bag let alone a mountain bike.


(Fill + Harmonica: Start on 8th fret of High E string or play Chord C (032010) with variation)

Strumming pattern slows... Play open High E string for chords:

C         G/c                Am            Am
I cant go away with you on a rock climbing weekend
C                  G/c           Am          Am
What if somethings on tv and its never shown again
F                   G           C            Am
Its just as well Im not invited Im afraid of heights
F	     G         F       C
I lied about being the outdoor type
F                G                C             Am
Never learned to swim cant grow a beard or even fight
F	     G         F       C
I lied about being the outdoor type

Tap to rate this tab
 
# A B C D E F G H I J K L M N O P Q R S T U V W X Y Z