Song name
# A B C D E F G H I J K L M N O P Q R S T U V W X Y Z

Frank Turner - Fix Me tab

Frank Turner - Fix Me

-KEY-

~ = ring out

-CHORDS-

         DADGAD
D5       0x0200
Dsus2/E  2x0200
D7M/A    7x0600
Dm/F     3x0200
Gmadd9   5x0300

-RIFFS-

D5 RIFF 1
e|---------------------------------------------------------------|
B|---------------------------------------------------------------|
G|---------2---2-----------2---2---------2---2-----------2---2---|
D|-------0---0-----------0---0---------0---0-----------0---0-----|
A|---------------------------------------------------------------|
E|---0-------------0h2-------------0-------------0h3-------------|

D5 RIFF 2
e|---------------------------------------------------------------|
B|---------------------------------------------------------------|
G|---------2---2---------2---2---------2---2---------2---2-------|
D|-------0---0---------0---0---------0---0---------0---0---------|
A|---------------------------------------------------------------|
E|---0-------------2-------------3-------------2-------------0---|



-INTRO-
D5 RIFF 1
D5 RIFF 1
D5 RIFF 1
D5 RIFF 1

-VERSE-
D5 RIFF 1
Someday I'll feel no pain
And someday I won't have a brain
They'll take away the part that hurts
And let the rest remain

-CHORUS-
Gmadd9
  Fix me
D7M/A
  Fix my head
Gmadd9
  Fix me, please
        Dm/F
I don't wanna be dead

-VERSE-
D5 RIFF 1
Someday we'll all be rich
Someday I won't listen to you bitch
I'll turn up the volume
And you can hear all the shit we play

-CHORUS-
Gmadd9
  Fix me
D7M/A
  Fix my head
Gmadd9
  Fix me, please
        Dm/F
I don't wanna be dead

D5 RIFF 1
D5 RIFF 1

-VERSE-
D5 RIFF 1
Someday I'll feel no pain
And someday I won't have a brain
They'll take away the part that hurts
And let the rest remain

-CHORUS-
Gmadd9
  Fix me
D7M/A
  Fix my head
Gmadd9
  Fix me, please
        Dm/F
I don't wanna be dead

Gmadd9
  Fix me
D7M/A
  Fix my head
Gmadd9
  Fix me, please
        Dm/F
I don't wanna be dead

Gmadd9
  Fix me
D7M/A
  Fix my head
Gmadd9
  Fix me, please
        Dm/F
I don't wanna be dead

-OUTRO-
D5 RIFF 1
Take away the part that hurts
And let the rest remain

D5 RIFF 2
Oh, take away the part that hurts
And let the rest remain
Tap to rate this tab
# A B C D E F G H I J K L M N O P Q R S T U V W X Y Z