Song name
# A B C D E F G H I J K L M N O P Q R S T U V W X Y Z

Frank Zappa - Sleep Dirt tab

                           Sleep Dirt/Black Napkins - Frank ZAPPA                            


                                                                     
Acoustic Guitar

Tuning:Standard



      E  E  E  E  E  E     E  E  E  E  E  E     E  E  E  E  E  E   
E||---------------------|--------------------|--------------------|
B||---------------------|--------------------|--------------------|
G||*--------6-----6-----|--------6-----6-----|--------4-----4-----|
D||*-----0-----0-----0--|-----0-----0-----0--|-----0-----0-----0--|
A||---------------------|--------------------|--------------------|
E||---7-----------------|--7-----------------|--4-----------------|


  E  E  E  E  E  E        E  E  E  E  E  E     E  E  E  E  E  E   4x
---------------------||---------------------|---------------------||
---------------------||---------------------|---------------------||
--------4-----4-----*||*--------2-----2-----|--------3-----3-----*||
-----0-----0-----0--*||*-----0-----0-----0--|-----0-----0-----0--*||
---------------------||---------------------|---------------------||
--4------------------||---2-----------------|--3------------------||


   E  E  E  E  E  E        E  E   E  E   E  E      E  E   E  E   E  E   
----------------------||-----------------------|-----------------------|
----------------------||-----------------------|-----------------------|
*--------1-----1-----*||---------13-----13-----|---------13-----13-----|
*-----0-----0-----0--*||------0------0------0--|------0------0------0--|
----------------------||-----------------------|-----------------------|
---1------------------||--13-------------------|--13-------------------|


  E  E  E  E  E  E     E  E  E  E  E  E     E  E  E  E  E  E   
--------------------|--------------------|--------------------|
--------------------|--------------------|--------------------|
--------6-----6-----|--------6-----6-----|--------4-----4-----|
-----0-----0-----0--|-----0-----0-----0--|-----0-----0-----0--|
--------------------|--------------------|--------------------|
--7-----------------|--7-----------------|--4-----------------|


  E  E  E  E  E  E     E  E  E  E  E  E     E  E  E  E  E  E   
--------------------|--------------------|--------------------|
--------------------|--------------------|--------------------|
--------4-----4-----|--------6-----6-----|--------6-----6-----|
-----0-----0-----0--|-----0-----0-----0--|-----0-----0-----0--|
--------------------|--------------------|--------------------|
--4-----------------|--7-----------------|--7-----------------|


  E  E  E  E  E  E     E  E  E  E  E  E     E  E  E  E  E  E   
--------------------|--------------------|--------------------|
--------------------|--------------------|--------------------|
--------4-----4-----|--------4-----4-----|--------2-----2-----|
-----0-----0-----0--|-----0-----0-----0--|-----0-----0-----0--|
--------------------|--------------------|--------------------|
--4-----------------|--4-----------------|--2-----------------|


  E  E  E  E  E  E     E  E  E  E  E  E     E  E  E  E  E  E   
--------------------|--------------------|--------------------|
--------------------|--------------------|--------------------|
--------3-----3-----|--------2-----2-----|--------3-----3-----|
-----0-----0-----0--|-----0-----0-----0--|-----0-----0-----0--|
--------------------|--------------------|--------------------|
--3-----------------|--2-----------------|--3-----------------|


  E  E  E  E  E  E     E  E  E  E  E  E     E  E  E  E  E  E   
--------------------|--------------------|--------------------|
--------------------|--------------------|--------------------|
--------2-----2-----|--------3-----3-----|--------1-----1-----|
-----0-----0-----0--|-----0-----0-----0--|-----0-----0-----0--|
--------------------|--------------------|--------------------|
--2-----------------|--3-----------------|--1-----------------|


  E  E  E  E  E  E      E  E   E  E   E  E      E  E   E  E   E  E   
--------------------|-----------------------|-----------------------|
--------------------|-----------------------|-----------------------|
--------1-----1-----|---------13-----13-----|---------13-----13-----|
-----0-----0-----0--|------0------0------0--|------0------0------0--|
--------------------|-----------------------|-----------------------|
--1-----------------|--13-------------------|--13-------------------|


  E  E  E  E  E  E     E  E  E  E  E  E     E  E  E  E  E  E   
--------------------|--------------------|--------------------|
--------------------|--------------------|--------------------|
--------6-----6-----|--------6-----6-----|--------9-----9-----|
-----0-----0-----0--|-----0-----0-----0--|-----0-----0-----0--|
--------------------|--------------------|--------------------|
--7-----------------|--7-----------------|--9-----------------|


  E  E  E  E  E  E     E  E  E  E  E  E     E  E  E  E  E  E   
--------------------|--------------------|--------------------|
--------------------|--------------------|--------------------|
--------9-----9-----|--------6-----6-----|--------6-----6-----|
-----0-----0-----0--|-----0-----0-----0--|-----0-----0-----0--|
--------------------|--------------------|--------------------|
--9-----------------|--7-----------------|--7-----------------|


  E  E  E  E  E  E     E  E  E  E  E  E     E  E  E  E  E  E   
--------------------|--------------------|--------------------|
--------------------|--------------------|--------------------|
--------9-----9-----|--------9-----9-----|--------6-----6-----|
-----0-----0-----0--|-----0-----0-----0--|-----0-----0-----0--|
--------------------|--------------------|--------------------|
--9-----------------|--9-----------------|--7-----------------|


  E  E  E  E  E  E     E  E  E  E  E  E     E  E  E  E  E  E   
--------------------|--------------------|--------------------|
--------------------|--------------------|--------------------|
--------6-----6-----|--------6-----6-----|--------6-----6-----|
-----0-----0-----0--|-----0-----0-----0--|-----0-----0-----0--|
--------------------|--------------------|--------------------|
--6-----------------|--5-----------------|--4-----------------|


  E  E  E  E  E  E     E  E  E  E  E  E     E  E  E  E  E  E   
--------------------|--------------------|--------------------|
--------------------|--------------------|--------------------|
--------6-----6-----|--------6-----6-----|--------4-----4-----|
-----0-----0-----0--|-----0-----0-----0--|-----0-----0-----0--|
--------------------|--------------------|--------------------|
--3-----------------|--3-----------------|--3-----------------|


                       ^              
  E  E  E  E  E  E     H.             
--------------------|---------------||
--------------------|---------------||
--------4-----4-----|--6------------||
-----0-----0-----0--|--0------------||
--------------------|---------------||
--3-----------------|--7------------||



________________________________________________________________
****************************************************************
________________________________________________________________
****************************************************************


Lead Guitar(Solo)



      H        Q       H        Q       H        Q       H        Q       
E||-----------------|----------------|----------------|-----------------||
B||-----------------|----------------|----------------|-----------------||
G||*----------------|----------------|----------------|----------------*||
D||*----------------|----------------|----------------|----------------*||
A||-----------------|----------------|----------------|-----------------||
E||-----------------|----------------|----------------|-----------------||


   H        Q       H        Q     4x   H        Q         H        Q     
-----------------|-----------------||------------------||----------------|
-----------------|-----------------||------------------||----------------|
*----------------|----------------*||*----------------*||----------------|
*----------------|----------------*||*----------------*||----------------|
-----------------|-----------------||------------------||----------------|
-----------------|-----------------||------------------||----------------|


  H        E   S  S    H.               H        E   S  S  
--------------------|--9~------------|--7-----------------|
--------------10p-7-|----------------|--------------10p-7-|
--------------------|----------------|--------------------|
--------------------|----------------|--------------------|
--------------------|----------------|--------------------|
--------------------|----------------|--------------------|


  |----5----|            |---3---|                                             
  S S S  S  S S  S  S  S E   E   E     H        E   S  S        H.             
--9---9p-7----7h-9p-7----7----------|--------------------|--10g12~------------|
-----------10---------10----10p--7--|--------------10p-7-|--------------------|
------------------------------------|--9-----------------|--------------------|
------------------------------------|--------------------|--------------------|
------------------------------------|--------------------|--------------------|
------------------------------------|--------------------|--------------------|


                        |----5----|                       
  Q.     E  E   S  S    S S S  S  S S  S  S  S S  S  S S  
--9------------------|--9---9p-7----7h-9p-7----7---------|
---------------10p-7-|-----------10---------10---10p-7---|
---------------------|---------------------------------9-|
---------------------|-----------------------------------|
---------------------|-----------------------------------|
---------------------|-----------------------------------|


  S E.   Q    E   S  S    Q.      S  S T   T  T  T  S S  
-----------------------|--9~------9-10-9h-10p-9p-7----7-|
--7--------------10p-7-|---------------------------10---|
----9~---L-------------|--------------------------------|
-----------------------|--------------------------------|
-----------------------|--------------------------------|
-----------------------|--------------------------------|


  Q.      S  S T   T  T  T  S S    Q.      S  S T   T  T  T  S S  
--9~------9-10-9h-10p-9p-7----7-|--9~------9-10-9h-10p-9p-7----7-|
---------------------------10---|---------------------------10---|
--------------------------------|--------------------------------|
--------------------------------|--------------------------------|
--------------------------------|--------------------------------|
--------------------------------|--------------------------------|


  Q.      S  S T   T  T  T  S S        E.   S  H            H        Q     
--9~------9-10-9h-10p-9p-7----7-|--10g12---10-12~--------|--L-------------|
---------------------------10---|------------------------|----------------|
--------------------------------|------------------------|----------------|
--------------------------------|------------------------|----------------|
--------------------------------|------------------------|----------------|
--------------------------------|------------------------|----------------|


                                                           |---5---|  
      E.   S  H            H        Q       E  S S S S S S S S S S S  
--13g15---13-15~--------|--L-------------|--9--7-6-------------------|
------------------------|----------------|---------9-8-6-------------|
------------------------|----------------|---------------9-7-6-------|
------------------------|----------------|---------------------9-8-7-|
------------------------|----------------|---------------------------|
------------------------|----------------|---------------------------|


  H         E   S  S    H.               H        E   S  S  
---------------------|--9~------------|--7-----------------|
---------------10p-7-|----------------|--------------10p-7-|
---------------------|----------------|--------------------|
--6~-----------------|----------------|--------------------|
---------------------|----------------|--------------------|
---------------------|----------------|--------------------|


  |----5----|            |---3---|                                             
  S S S  S  S S  S  S  S E   E   E     H        E   S  S        H.             
--9---9p-7----7h-9p-7----7----------|--------------------|--10g12~------------|
-----------10---------10----10p--7--|--------------10p-7-|--------------------|
------------------------------------|--9-----------------|--------------------|
------------------------------------|--------------------|--------------------|
------------------------------------|--------------------|--------------------|
------------------------------------|--------------------|--------------------|


                        |----5----|                       
  Q.     E  E   S  S    S S S  S  S S  S  S  S S  S  S S  
--9------------------|--9---9p-7----7h-9p-7----7---------|
---------------10p-7-|-----------10---------10---10p-7---|
---------------------|---------------------------------9-|
---------------------|-----------------------------------|
---------------------|-----------------------------------|
---------------------|-----------------------------------|


  S E.   Q    E   S  S    Q.      S  S T   T  T  T  S S  
-----------------------|--9~------9-10-9h-10p-9p-7----7-|
--7--------------10p-7-|---------------------------10---|
----9~---L-------------|--------------------------------|
-----------------------|--------------------------------|
-----------------------|--------------------------------|
-----------------------|--------------------------------|


  Q.      S  S T   T  T  T  S S    Q.      S  S T   T  T  T  S S  
--9~------9-10-9h-10p-9p-7----7-|--9~------9-10-9h-10p-9p-7----7-|
---------------------------10---|---------------------------10---|
--------------------------------|--------------------------------|
--------------------------------|--------------------------------|
--------------------------------|--------------------------------|
--------------------------------|--------------------------------|


  Q.      S  S T   T  T  T  S S    E.  S  E  E  Q       H        Q     
--9~------9-10-9h-10p-9p-7----7-|--9---7-----7--L----|--L-------------|
---------------------------10---|--------10----------|----------------|
--------------------------------|--------------------|----------------|
--------------------------------|--------------------|----------------|
--------------------------------|--------------------|----------------|
--------------------------------|--------------------|----------------|


   S S S  S  S  S  T   T   T  T  Q       H        Q       H        Q      
--10-9-9-10-10-12-10h-12p-10p-9-10----|--L-------------|----------------||
--------------------------------------|----------------|----------------||
--------------------------------------|----------------|----------------||
--------------------------------------|----------------|----------------||
--------------------------------------|----------------|----------------||
--------------------------------------|----------------|----------------||




Duration Legend
---------------
W - whole
H - half
Q - quarter
E - 8th
S - 16th
T - 32nd
X - 64th
. - note dotted
|-n-|  - n-tuplets


Tablature Legend
----------------
L - tied note
x - dead note
g - grace note
(n) - ghost note
> - accentuded note
NH - natural harmonic
AH - artificial harmonic
TH - tapped harmonic
SH - semi harmonic
PH - pitch harmonic
h - hammer on
p - pull off
b - bend
br - bendRelease
pb - preBend
pbr - preBendRelease
brb - bendReleaseBend
\n/ - tremolo bar dip
\n - tremolo bar dive
-/n - tremolo bar Release up
/n\ - tremolo bar inverted dip
/n - tremolo bar return
-\n - tremolo bar Release down
S - shift slide
s - legato slide
/ -  slide into from below or out of upwards
\ -  slide into from above or out of downwards
~ - vibrato
W - wide vibrato
tr - trill
TP - tremolo picking
T - tapping
S - slap
P - pop
< - fade in
^ - brush up
v - brush down
Tap to rate this tab
# A B C D E F G H I J K L M N O P Q R S T U V W X Y Z