Song name
# A B C D E F G H I J K L M N O P Q R S T U V W X Y Z

Frankie Rose And The Outs - Candy tab

Frankie Rose And The Outs - Candy
From the album "Frankie Rose And The Outs" (Slumberland Records 2010).

http://www.slumberlandrecords.com/artists/show/91

Tabbed by Isaac Murguia, March 2014.
Originally uploaded to Ultimate-Guitar.com
Contact: www.youtube.com/user/Goadiroth

INTRO:
e|--------------------------------|
B|--------------------------------|
G|-5-5-5--10-10-10--8-8-8-8-8-8-8-|
D|-5-5-5--10-10-10--8-8-8-8-8-8-8-|
A|-3-3-3--8--8--8---6-6-6-6-6-6-6-|
E|--------------------------------|

CHORUS: repeat INTRO [x4]

VERSE:
e|-----------------------------------|
B|-----------------------------------|
G|-------------5-5--3-3-3-3--3-3-3-3-|
D|-----5-5-3-3-----------------------|
A|-3-3-------------------------------|
E|-----------------------------------|

Repeat CHORUS
Repeat VERSE [x2]

VERSE ADDITION:
e|------------------|
B|------------------|
G|-3-3-3-3--3-3-3-3-|
D|------------------|
A|------------------|
E|------------------|

BRIDGE:
e|--------------------|      |-----------------------------------------|
B|--------------------|      |-----------------------------------------|
G|-10-10-10--12-12-12-|      |-9-9-9-9-9-9-9-9-10-10-10-10-10-10-10-10-|
D|-10-10-10--12-12-12-|      |-9-9-9-9-9-9-9-9-10-10-10-10-10-10-10-10-|
A|-8--8--8---10-10-10-|      |-7-7-7-7-7-7-7-7-8--8--8--8--8--8--8--8--|
E|--------------------| [x3] |-----------------------------------------|

e|--------------------|      |-----------------------------------------|
B|--------------------|      |-----------------------------------------|
G|-10-10-10--12-12-12-|      |-8-8-8-8-8-8-8-8-10-10-10-10-10-10-10-10-|
D|-10-10-10--12-12-12-|      |-8-8-8-8-8-8-8-8-10-10-10-10-10-10-10-10-|
A|-8--8--8---10-10-10-|      |-6-6-6-6-6-6-6-6-8--8--8--8--8--8--8--8--|
E|--------------------| [x3] |-----------------------------------------|

e|-------------------------|
B|-------------------------|
G|-10-10-10-10-10-10-10-10-|
D|-10-10-10-10-10-10-10-10-|
A|-8--8--8--8--8--8--8--8--|
E|-------------------------|

Repeat VERSE [x2]

LEAD A:
e|------------11-11----------------------|
B|-11-11-13---------13---11-11-13-11-11--|
G|---------------------------------------|
D|---------------------------------------|
A|---------------------------------------|
E|---------------------------------------| [x2]

LEAD B:
e|-------------11-11-------------------------------|
B|-11-11-13-13-------13-13-11-11-13-11-------------|
G|-------------------------------------12-12-12-12-|
D|-------------------------------------------------|
A|-------------------------------------------------|
E|-------------------------------------------------| [x3]

OUTRO: (gtr 2 also plays VERSE)
e|-------------11-11-------------------------------|
B|-11-11-13-13-------13-13-11-11-13-11-------------|
G|-------------------------------------12-12-12-12-|
D|-------------------------------------------------|
A|-------------------------------------------------|
E|-------------------------------------------------| [x2]

e|-------------11-11-13-13-15-15-15-15-15-15-15-15-|
B|-11-11-13-13-------------------------------------|
G|-------------------------------------------------|
D|-------------------------------------------------|
A|-------------------------------------------------|
E|-------------------------------------------------|

Repeat OUTRO [x2]
Repeat LEAD B [x1]

End. Please rate!
Tap to rate this tab
# A B C D E F G H I J K L M N O P Q R S T U V W X Y Z