Song name
# A B C D E F G H I J K L M N O P Q R S T U V W X Y Z

Franz Ferdinand - Take Me Out tab

e------------------------------------------------------------------------|
b------------------------------------------------------------------------|
g------------------------------------------------------------------------|
d----------------5-5-5-5-5-5-5-5-4-4-4-4-4-4-9-9-9-9-7-7-7-5-5-5-5-5-----|
a-7-7-7-7-7-7-7-7----------------------------------------------------5-7-|
E------------------------------------------------------------------------|

e------------------------------------------------------------------------|
b------------------------------------------------------------------------|
g------------------------------------------------------------------------|
d-5-5-5-5-5-5-5-5-4-4-4-4-4-4-4-4-9-9-9-9-7-7-7-5-5-5-5-5----------------| x3
a---------------------------------------------------------5-7------------|
E------------------------------------------------------------------------|

e-------------------------------------------------------------------------|
b-------------------------------------------------------------------------|
g-------------------------------------------------------------------------|
d-5-5-5-5-7-7-7-2-2-2-2-2-2-2-2-------------------------------------------|
a-------------------------------5-5-5-5-7-5-7-0-0-0-0-0-0-0-0-7-7-7-7-7-7-|
E-------------------------------------------------------------------------|

e-------------------------------------------------------------------------|
b-------------------------------------------------------------------------|
g-------------------------------------------------------------------------|
d-----7-7-7-7-7-7-7-7-----------------5-5-5-5-5-5-5-5---------------------|
a-7-7-----------------5-5-5-5-5-5-5-5-----------------7-7-7-7-7-7-7-7-7-7-|
E-------------------------------------------------------------------------|

e-----------------0-0-0-0---------0-0-0-0---------0-0-0-0---------0-0-0-0-|
b-----------------9-9-9-9---------9-9-9-9---------9-9-9-9---------9-9-9-9-|
g-----------------0-0-0-0---------0-0-0-0---------0-0-0-0---------0-0-0-0-|
d-----------------0-0-0-0---------0-0-0-0---------0-0-0-0---------0-0-0-0-|
a-7-7-7-7-7--7--7-7-7-7-7-7--7--7-7-7-7-7-7--7--7-7-7-7-7-7--7--7-7-7-7-7-|
E-----------------0-0-0-0---------0-0-0-0---------0-0-0-0---------0-0-0-0-|

e------------------------------------------------------------------------|
b------------------------------------------------------------------------|
g-12-------------------12--------------------12--------------------------|
d---14-14-12----12-14-----14-14-12----12-14-----14-14-12----12-14--------|
a------------14--------------------14--------------------14--------------|
E------------------------------------------------------------------------|

e------------------------------------------------------------------------|
b------------------------------------------------------------------------|
g-11-11-11-11-11-11-11-11---------------7-----7--------7-----7-----------|
d-------------------------12-12-12--7h8---7h8---5--7h8---7h8---5---------|
a------------------------------------------------------------------------|
E------------------------------------------------------------------------|

e------------------------------------------------------------------------|
b------------------------------------------------------------------------|
g-----7-----7--------10-----10----12-------------------------------------|
d-7h8---7h8---5--7h8----7h8----5-----14-14-12----12-14-------------------|
a---------------------------------------------14-------------------------|
E------------------------------------------------------------------------|

e------------------------------------------------------------------------|
b------------------------------------------------------------------------|
g-12--------------------12--------------------11-11-11-11-11-11-11-11----|
d----14-14-12----12-14-----14-14-12----12-14-----------------------------|
a-------------14--------------------14-----------------------------------|
E------------------------------------------------------------------------|

e------------------------------------------------------------------------|
b------------------------------------------------------------------------|
g---------------7-----7--------7----7--------7-----7-------10-----10-----|
d-12-12-12--7h8---7h8---5--7h8---7h8--5--7h8---7h8---5--7h8---7h8----5---|
a------------------------------------------------------------------------|
E------------------------------------------------------------------------|

im sorry about this but i dont know this part of the song so im just going to skip it sorry guys.

e------------------------------------------------------------------------|
b------------------------------------------------------------------------|
g-12--------------------12--------------------12-------------------------|
d----14-14-12----12-14-----14-14-12----12-14-----14-14-12----12-14-------|
a-------------14--------------------14--------------------14-------------|
E------------------------------------------------------------------------|

e------------------------------------------------------------------------|
b------------------------------------------------------------------------|
g-11-11-11-11-11-11-11-11---------------7-----7--------7-----7-----------|
d-------------------------12-12-12--7h8---7h8---5--7h8---7h8---5---------|
a------------------------------------------------------------------------|
E------------------------------------------------------------------------|

e------------------------------------------------------------------------|
b------------------------------------------------------------------------|
g-----7-----7--------10-----10---------7-----7--------7-----7------------|
d-7h8---7h8---5--7h8----7h8----5---7h8---7h8---5--7h8---7h8---5----------|
a------------------------------------------------------------------------|
E------------------------------------------------------------------------|

e------------------------------------------------------------------------|
b------------------------------------------------------------------------|
g-----7-----7----12--------------------12--------------------------------|
d-7h8---7h8---5-----14-14-12----12-14-----14-14-12----12-14--------------|
a----------------------------14--------------------14--------------------|
E------------------------------------------------------------------------|

e------------------------------------------------------------------------|
b------------------------------------------------------------------------|
g-12--------------------11-11-11-11-11-11-11-11--------------------------|
d----14-14-12----12-14--------------------------12-12-12-----------------|
a-------------14---------------------------------------------------------|
E------------------------------------------------------------------------|

that's all i know so far so hope this helped you guys because this is my first tab.
Tap to rate this tab
 
# A B C D E F G H I J K L M N O P Q R S T U V W X Y Z