Song name
# A B C D E F G H I J K L M N O P Q R S T U V W X Y Z

Franz Ferdinand - Love Illumination tab

-------------------------------------------------------------------------------
                             Love Illumination - Franz Ferdinand
-------------------------------------------------------------------------------
Tabbed by: Matthew Ridderikhoff
E-mail: hiddenrevs@gmail.com

Tuning: Standard (EADGBe)

e|---------------------------------------------------------------------------|
B|---------------------------------------------------------------------------|
G|--------------2-0-------------------2-0-------------------2-0--------------|
D|------------------2---------------------2---------------------0-2----------|
A|------0-1-2-----------------0-1-2-----------------0-1-2-3------------------|
E|-0-3--------0----------0-3--------0-----------0-3--------------------------|

e|---------------------------------------------------------------------------|
B|---------------------------------------------------------------------------|
G|-------------2-0------------------2-0------------------2-0-----------------|
D|-----------------2--------0-1-2-------2--------------------0-2-------------|
A|---3-2-0---0----------0-3----------------------0-1-2-----------------------|
E|-0-------3----------------------0----------0-3-------0---------------------|


************************************

| /   slide up
| \   slide down
| h   hammer-on
| p   pull-off
| ~   vibrato
| +   harmonic
| x   Mute note
| b   Bend
| pb  Pre-bend
| br  Bend release
| pbr Pre-bend release
| brb Bend release bend

************************************
Tap to rate this tab
 
# A B C D E F G H I J K L M N O P Q R S T U V W X Y Z