Song name
# A B C D E F G H I J K L M N O P Q R S T U V W X Y Z

Franz Ferdinand - All My Friends tab

-----------------------------------------------------------------------------
                     All My Friends - Franz Ferdinand
-----------------------------------------------------------------------------
Tabbed by:Onlycloser
Email:

Tuning:Standard

e|--------------------------------------------------------------------------|
B|--------------------------------------------------------------------------|
G|-------------------------------------7-7-7-7-7-7-7-7-7-7-7-7-7------------|
D|----7-7-7-7-7-7-7-7-7-7-7-7-7-7-7-7--7-7-7-7-7-7-7-7-7-7-7-7-7------------|
A|----7-7-7-7-7-7-7-7-7-7-7-7-7-7-7-7--5-5-5-5-5-5-5-5-5-5-5-5-5------------|
E|----5-5-5-5-5-5-5-5-5-5-5-5-5-5-5-5---------------------------------------|
  PM........................................................................


Those are the only chords you use throughout the whole song except for a few other parts 
show up later
The synth line that comes after goes like this......
   Repeat as much as needed, and end on 2 like so.....
e|------|------------|------------------------------------------------------|
B|------|------------|------------------------------------------------------|
G|---6--|4-6-7-6-4-6-|-4-6-7-6-4-2------------------------------------------|
D|------|------------|------------------------------------------------------|
A|------|------------|------------------------------------------------------|
E|------|------------|------------------------------------------------------|
    And then you just strum the chords previously shown and let them ring.  And every 
you're about to play the D chord (the one rooted on the A string for those who don't know 
during the first couple of verses play this...
e|--------------------------------------------------------------------------|
B|--------------------------------------------------------------------------|
G|--------------------------------------------------------------------------|
D|--------------------------------------------------------------------------|
A|--------------------------------------------------------------------------|
E|--0-5-7-9-10--------------------------------------------------------------|
  ...and then dreamily strum the D chord.  You can also do some slight variations of 
that would include making the whole thing one giant slide.

So after you've gotten through the whole song, you then come to the part where he 
"where are your friends tonight?" more than usual and the chord progression speeds up a little 
 When he finally recites that line in a deep voice, the chord progression changes for the moment to...
e|--------------------------------------------------------------------------|
B|--------------------------------------------------------------------------|
G|---4-4-4-4-4-4-4-4-4-4-4-4-4-4-4-4-7-7-7-7-7-7-7-7-7-7-7-7-7-7-7-7--------|
D|---4-4-4-4-4-4-4-4-4-4-4-4-4-4-4-4-7-7-7-7-7-7-7-7-7-7-7-7-7-7-7-7-7------|
A|---2-2-2-2-2-2-2-2-2-2-2-2-2-2-2-2-5-5-5-5-5-5-5-5-5-5-5-5-5-5-5-5-7------|
E|-------------------------------------------------------------------5------|
"...tonight, where are your friends tonight,where are your friends tonight."

You then basically have fun with those two chords, until the ending of the song, when 
do this cool chord thing and sing "if i could be with my friends tonight."                 
                     End on
e|---14-14-x-14-x-14-14-x-14-x-13-13-x-13-x-13-13-x-13-|-14-----------------|
B|---14-14-x-14-x-14-14-x-14-x-14-14-x-14-x-14-14-x-14-|-14-----------------|
G|---13-13-x-13-x-13-13-x-13-x-13-13-x-13-x-13-13-x-13-|-13-----------------|
D|-----------------------------------------------------|--------------------|
A|-----------------------------------------------------|--------------------|
E|-----------------------------------------------------|--------------------|

| /  slide up
| \  slide down
| h  hammer-on
| p  pull-off
| ~  vibrato
| +  harmonic
| x  Mute note
========================================================================
Tap to rate this tab
 
# A B C D E F G H I J K L M N O P Q R S T U V W X Y Z