Song name
# A B C D E F G H I J K L M N O P Q R S T U V W X Y Z

Franz Ferdinand - Outsiders tab

Band: Franz Ferdinand
Song: Outsiders
Album: You Could Have It So Much Better

tabbed by: libertines4ever

---------------------------------------------------------------------
pm.............palm mute

First Part of Intro:
(only guitars)

top      - lead
bottom   - rhythm

  Dm

  1 + 2 + 3 + 4 + 1 + 2 + 3 + 4 +  1 + 2 + 3 + 4 + 1 + 2 + 3 + 4 +
              pm..............             pm..................
e 5-----5-x---5---5---5---5---5--- --5-x---5---5---5---5---5---6---|
H 6-----6-x---6---6---6---6---6--- --6-x---6---6---6---6---6---6---|
G 7-----7-x---7---7---7---7---7--- --7-x---7---7---7---7---7---7---|
D -------------------------------- --------------------------------|
A -------------------------------- --------------------------------|
E -------------------------------- --------------------------------|

e -------------------------------- --------------------------------|
H 6---6---x-x-6---6---6---x-x-6--- 6---6---x-x-6---6---6---x-x-6---|
G 7---7---x-x-7---7---7---x-x-7--- 7---7---x-x-7---7---7---x-x-7---|
D 7---7---x-x-7---7---7---x-x-7--- 7---7---x-x-7---7---7---x-x-7---|
A 5---5---x-x-5---5---5---x-x-5--- 5---5---x-x-5---5---5---x-x-5---|
E --------------------------------- -------------------------------|

  A#

          pm..................             pm......
e --6-x---6---6---6---6---6---6--- --6-x---6---6---|
H --6-x---6---6---6---6---6---6--- --6-x---6---6---|
G --7-x---7---7---7---7---7---7--- --7-x---7---7---|
D -------------------------------- ----------------|
A -------------------------------- ----------------|
E -------------------------------- ----------------|

e -------------------------------- ----------------|
H 6---6---x-x-6---6---6---x-x-6--- 6---6---x-x-6-x-|
G 7---7---x-x-7---7---7---x-x-7--- 7---7---x-x-7-x-|
D 8---8---x-x-8---8---8---x-x-8--- 8---8---x-x-8-x-|
A 8---8---x-x-8---8---8---x-x-8--- 8---8---x-x-8-x-|
E -------------------------------- ----------------|

Second Part of Intro:
(guitars + drums and bass)

top     - lead
bottom  - rhythm

  Dm

  1 + 2 + 3 + 4 + 1 + 2 + 3 + 4 +  1 + 2 + 3 + 4 + 1 + 2 + 3 + 4 +
              pm..............             pm..................
e 5-----5-x---5---5---5---5---5--- --5-x---5---5---5---5---5---6---|
H 6-----6-x---6---6---6---6---6--- --6-x---6---6---6---6---6---6---|
G 7-----7-x---7---7---7---7---7--- --7-x---7---7---7---7---7---7---|
D -------------------------------- --------------------------------|
A -------------------------------- --------------------------------|
E -------------------------------- --------------------------------|

e -------------------------------- --------------------------------|
H 6---6---x-x-6---6---6---x-x-6--- 6---6---x-x-6---6---6---x-x-6---|
G 7---7---x-x-7---7---7---x-x-7--- 7---7---x-x-7---7---7---x-x-7---|
D 7---7---x-x-7---7---7---x-x-7--- 7---7---x-x-7---7---7---x-x-7---|
A 5---5---x-x-5---5---5---x-x-5--- 5---5---x-x-5---5---5---x-x-5---|
E -------------------------------- --------------------------------|

  A#
          pm..................             pm......................
e --6-x---6---6---6---6---6---6--- --6-x---6---6---6---6---6---6---|
H --6-x---6---6---6---6---6---6--- --6-x---6---6---6---6---6---6---|
G --7-x---7---7---7---7---7---7--- --7-x---7---7---7---7---7---7---|
D -------------------------------- --------------------------------|
A -------------------------------- --------------------------------|
E -------------------------------- --------------------------------|


e -------------------------------- --------------------------------|
H 6---6---x-x-6---6---6---x-x-6--- 6---6---x-x-6-x-6---x-6---x-6---|
G 7---7---x-x-7---7---7---x-x-7--- 7---7---x-x-7-x-7---x-7---x-7---|
D 8---8---x-x-8---8---8---x-x-8--- 8---8---x-x-8-x-8---x-8---x-8---|
A 8---8---x-x-8---8---8---x-x-8--- 8---8---x-x-8-x-8---x-8---x-8---|
E -------------------------------- --------------------------------|

those first two intro parts look a bit complicated and confusing,
but I'm sure they are right

Keyboard Solo Part:

top    - Same Rhythm, but chord changes at a different time
bottom - keyboard solo transcribed for guitar
lead   - Stays the same as in second part of intro

Dm /---/---x-x-/---/---/---x-x-/---/---/---x-x-/---/---/---x-x-/---|
e------------------------------------------------------------------|
H------------------------------------------5-----------------------|
G----------7-------7-----------5---7---------------7---5-----------|
D--7-------------------------------------------------------7-------|
A------------------------------------------------------------------|
E------------------------------------------------------------------|

Dm /---/---x-x-/---/---/---x-x-/---/---/---x-x-/---/---/---x-x-/---

e------------------------------------------------------------------|
H----------5-------------------------------5-----------------------|
G------------------7-----------5---7---------------7---5-----------|
D----------------------------------------------------------7-------|
A------------------------------------------------------------------|
E------------------------------------------------------------------|

A# /---/---x-x-/---/---/---x-x-/---/---/---x-x-/---/---/---x-x-/---

e------------------------------------------------------------------|
H--6-----------5-------------------6-----------5-------------------|
G------------------7-------------------------------7---------------|
D------------------------------------------------------------------|
A------------------------------------------------------------------|
E------------------------------------------------------------------|

^^Play those three parts above twice in a row^^,

then let the solo ring out like this:

A# /---/---x-x-/---/---/---x-x-/---/---/---x-x-/---/---/---x-x-/---

e------------------------------------------------------------------|
H------------------------------------------------------------------|
G--7---------------------------------------------------------------|
D------------------------------------------------------------------|
A------------------------------------------------------------------|
E------------------------------------------------------------------|

Dm /---/---x-x-/---/---/---x-x-/---/---/---x-x-/---/---/---x-x-/---

e------------------------------------------------------------------|
H------------------------------------------------------------------|
G--7---------------------------------------------------------------|
D------------------------------------------------------------------|
A------------------------------------------------------------------|
E------------------------------------------------------------------|
Tap to rate this tab
# A B C D E F G H I J K L M N O P Q R S T U V W X Y Z