Song name
# A B C D E F G H I J K L M N O P Q R S T U V W X Y Z

Franz Ferdinand - Right Action tab

main guitar riff:

|----------------|
|----------------|
|----------------|
|------------4\--|
|--3-5-3-5-5-----|
|----------------|


second guitar:

|--5--5-5-x-5--x-3-3--|
|--7--7-7-x-7--x-3-3--|
|--7--7-7-x-7--x-4-4--|
|---------------------|
|---------------------|
|---------------------|


chords on the other parts:

D       G               F     G
  Right Thoughts! Right Words!  Right Action!

B         D      F#       A     B       D       F#   A
  But how can we leave you  to saturday night or sunday morning


part from 2:00 to 2:20

|--5--5-5-x-5--x-3-3--5--5-5-x-5--x-3-3--5--5-5-x-5--x-3-3-x-1-1-1-x-3-3-3--|
|--7--7-7-x-7--x-3-3--7--7-7-x-7--x-3-3--7--7-7-x-7--x-3-3-x-1-1-1-x-3-3-3--|
|--7--7-7-x-7--x-4-4--7--7-7-x-7--x-4-4--7--7-7-x-7--x-4-4-x-2-2-2-x-4-4-4--|
|---------------------------------------------------------------------------|
|---------------------------------------------------------------------------|
|---------------------------------------------------------------------------|

and then A and G, like:

A   G         A      G
  Eleven South Court Gardens
A       G        A        G
Englandís Lane past end to London


sorry if i couldn't describe it well but i'm not english and some of the vocabulary i 
needed to use was too difficult to find :) great song anyway, i love Franz Ferdinand! hope 
this tab will be useful for you!
Tap to rate this tab
# A B C D E F G H I J K L M N O P Q R S T U V W X Y Z