Song name
# A B C D E F G H I J K L M N O P Q R S T U V W X Y Z

Franz Ferdinand - Fallen tab

#----------------------------------PLEASE NOTE---------------------------------#
#This file is the author's own work and represents their interpretation of the #
#song. You may only use this file for private study, scholarship, or research. #
#------------------------------------------------------------------------------##

Franz Ferdinand - The Outsiders
Tabbed by mikethecoug


  Q=130
 4/4
  Gtr I
  ~
  W     Q E S  E E E S E  Q E S  E E E S E  Q E S  E E E S E
|---------------------------------------------------------------|
|---------------------------------------------------------------|
|---------------------------------------------------------------|
|-----------3-/8-8---8--------3-/8-8---8--------3-/8-8---8------|
|-3-----3-3--------8---8--3-3--------8---8--3-3--------8---8----|
|---------------------------------------------------------------|


    Gtrs I, II
         Q E S   E  E  E  S  E     3x
||---------------------------------||
||o-------------------------------o||
||---------------------------------||
||---------------------------------||
||o------3-3-3-/13-13----13-------o||
||--------------------13----13-----||


  Gtr I
  Q Q Q Q  E S S S H E E S H E E E H  E E E
|----------------------------------------------|
|----------------------------------------------|
|------------------5---5-----------------------|
|-3-0------7-7-5-7---7---7-5-5-7-5-3-----------|
|-----2-------------------------------6-5-3----|
|-------3--------------------------------------|


    Gtr I
     S S S H Q  S S S H Q  S S S H Q S S S W
||-----------------------------------------------||
||o---------------------------------------------o||
||-----------------------------------------------||
||-----------------------------------------------||
||o---------------------------------------------o||
||---5-7-8------5-7-8------5-7-8-----3-5-6-------||
|
|   Gtr II
|    S S S H Q  S S S H Q  S S S H Q S S S W
||-----------------------------------------------||
||o---------------------------------------------o||
||-----------------------------------------------||
||--10-9-7-----10-9-7-----10-9-7-----8-7-5-------||
||o---------------------------------------------o||
||-----------------------------------------------||


    Gtr I
    E S S H E E E S S H E E E S S H E E E S S E H E
||----------5-----------5-----------5-------------------||
||o---------6-----------6-----------6------------------o||
||----------5-----------5-----------5-------------------||
||--7-7-7-------7-7-7-------7-7-7-------5-5-5---6-------||
||o-7-7-7-------7-7-7-------7-7-7-------5-5-5---6------o||
||--5-5-5-------5-5-5-------5-5-5-------3-3-3---4-------||


  Gtrs I, II
  Q E S  E E E S E  Q E S  E E E S E  Q E S  E E E S E
|---------------------------------------------------------|
|---------------------------------------------------------|
|---------------------------------------------------------|
|-----3-/8-8---8--------3-/8-8---8--------3-/8-8---8------|
|-3-3--------8---8--3-3--------8---8--3-3--------8---8----|
|---------------------------------------------------------|


  Gtr I
  Q Q Q Q  E S S S H E E S H E E E H  E E E
|----------------------------------------------|
|----------------------------------------------|
|------------------5---5-----------------------|
|-3-0------7-7-5-7---7---7-5-5-7-5-3-----------|
|-----2-------------------------------6-5-3----|
|-------3--------------------------------------|


  Gtr I
  E S S H E E E S S H E  E S S H E E E S S H E E
|---------5-----------5----------5------------------|
|---------6-----------6----------6------------------|
|---------5-----------5----------5------------------|
|-7-7-7-------7-7-7------7-7-7-------5-5-5---6------|
|-7-7-7-------7-7-7------7-7-7-------5-5-5---6------|
|-5-5-5-------5-5-5------5-5-5-------3-3-3---4------|


  Gtrs I, II
  Q E S  E E E S E  Q E S  E E E S E
|---------------------------------------|
|---------------------------------------|
|---------------------------------------|
|-----3-/8-8---8--------3-/8-8---8------|
|-3-3--------8---8--3-3--------8---8----|
|---------------------------------------|


  Gtr I
  Q Q Q Q  E S S S H E E S H E E E H  E E E
|----------------------------------------------|
|----------------------------------------------|
|------------------5---5-----------------------|
|-3-0------7-7-5-7---7---7-5-5-7-5-3-----------|
|-----2-------------------------------6-5-3----|
|-------3--------------------------------------|


  Gtrs I, II
  E E E E E E E E E E E E E E E E E E E E E E E E E E E E E E E E E E E
|-----------------------------------------------------------------------|
|-----------------------------------------------------------------------|
|-5-5-5-5-5-7-7-7-7-7-9-9-9-9-9-7-7-7-7-7-7-5-5-5-5-5-7-7-7-7-9-9-9-9-9-|
|-5-5-5-5-5-7-7-7-7-7-9-9-9-9-9-7-7-7-7-7-7-5-5-5-5-5-7-7-7-7-9-9-9-9-9-|
|-3-3-3-3-3-5-5-5-5-5-7-7-7-7-7-5-5-5-5-5-5-3-3-3-3-3-5-5-5-5-7-7-7-7-7-|
|-----------------------------------------------------------------------|


  Gtrs I, II
  E E E E E E E E E  Q
|-------------------------|
|-------------------------|
|-7-7-7-7-7-2-2-2-2--2----|
|-7-7-7-7-7-2-2-2-2--2----|
|-5-5-5-5-5-0-0-0-0--0----|
|-------------------------|


  Wx4
|--------|
|--------|
|--------|
|--------|
|--------|
|--------|


  Gtr I
  E S S H    E E   E S S H    E E   S S H    E E E   S S H    E E
|------------5---|------------5---|----------5-----|---------------|
|------------6---|------------6---|----------6-----|---------------|
|------------5---|------------5---|----------5-----|---------------|
|-7-7-7----------|-7-7-7--------7-|-7-7----------5-|-5-5------6----|
|-7-7-7----------|-7-7-7--------7-|-7-7----------5-|-5-5------6----|
|-5-5-5----------|-5-5-5--------5-|-5-5----------3-|-3-3------4----|


    Gtrs I, II
    Q  E S  E E E S E   Q  E S  E E E S E     6x
||--------------------|-----------------------||
||o-------------------|----------------------o||
||--------------------|-----------------------||
||-------3-/8-8---8---|------3-/8-8---8-------||
||o-3--3--------8---8-|-3--3--------8---8----o||
||--------------------|-----------------------||


  Gtr I                                                    Gtrs I, II
  Q  Q  Q  Q    E S S S H    E E   S H    E E E H      E E W
|-------------|------------------|-------------------|-----0--|
|-------------|------------------|-------------------|-----1--|
|-------------|---------5------5-|-------------------|-----0--|
|-3--0--------|-7-7-5-7------7---|-7-5----5-7-5-3----|-----2--|
|-------2-----|------------------|-------------------|-6-5-3--|
|----------3--|------------------|-------------------|--------|


Duration Legend
---------------
W - whole; H - half; Q - quarter; E - 8th; S - 16th; T - 32nd; X - 64th; a - acciaccatura
+ - note tied to previous; . - note dotted; .. - note double dotted
Uncapitalized letters represent notes that are staccato (1/2 duration)
Irregular groupings are notated above the duration line
Duration letters will always appear directly above the note/fret number it represents the
duration for.  Duration letters with no fret number below them represent rests.  Multi-
bar rests are notated in the form Wxn, where n is the number of bars to rest for.  Low
melody durations appear below the staff

Tablature Legend
----------------
 h   - hammer-on
 p   - pull-off
 b   - bend
 pb  - pre-bend
 r   - bend release (if no number after the r, then release immediately)
 /\  - slide into or out of (from/to "nowhere")
 s   - legato slide
 S   - shift slide
  - natural harmonic
[n]  - artificial harmonic
n(n) - tapped harmonic
 ~   - vibrato
 tr  - trill
 T   - tap
 TP  - trem. picking
 PM  - palm muting
\n/  - tremolo bar dip; n = amount to dip
 \n  - tremolo bar down
 n/  - tremolo bar up
/n\  - tremolo bar inverted dip
 =   - hold bend; also acts as connecting device for hammers/pulls
 <>  - volume swell (louder/softer)
 x   - on rhythm slash represents muted slash
 o   - on rhythm slash represents single note slash

Misc Legend
-----------
 |  - bar
||  - double bar
||o - repeat start
o|| - repeat end
*|  - double bar (ending)
 :  - bar (freetime)
 $  - Segno
 &  - Coda
Tempo markers -  = BPM(8/16=s8/s16), where s8 = swing 8ths, s16 = swing 16ths


***************************************************************************************
* Generated using Power Tab Editor by Brad Larsen - http://powertab.guitarnetwork.org *
***************************************************************************************
Tap to rate this tab
 
# A B C D E F G H I J K L M N O P Q R S T U V W X Y Z