Song name
# A B C D E F G H I J K L M N O P Q R S T U V W X Y Z

Freddie King - Boogie Funk tab

Freddie King
Boogie Funk


e----------------------------------|
b----------------------------------|
g--2-2-2-2-2-2-2-2-2-2-2-2-2-2-2-2-|  finger picked pretty fast
d----------------------------------|
a-0-0-0-3-0-0-0-3-0-0-0-3-0-0-0-3--|
e----------------------------------|


e-------------------------------------------------------|
b--5-5-x-2-2-x-5-5-x-2-2-x-5-5-x-2-2-x-5-5-x-2-2-x------|
g--5-5-x-2-2-x-5-5-x-2-2-x-5-5-x-2-2-x-5-5-x-2-2-x------|
a------x-0-0-x-----x-0-0-x-----x-0-0-x-----x-0-0-x------|
e-------------------------------------------------------|


e----------------------------------|
b----------------------------------|
g--2-2-2-2-2-2-2-2-2-2-2-2-2-2-2-2-|
d----------------------------------|
a-0-0-0-3-0-0-0-3-0-0-0-3-0-0-0-3--|
e----------------------------------|


e-8-8-x-----x-8-8-x-----x-8-8-x-----x-8-8-x-------|
b-5-5-x-2-2-x-5-5-x-5-5-x-5-5-x-2-2-x-5-5-x-5-5---|
g-5-5-x-2-2-x-5-5-x-5-5-x-5-5-x-2-2-x-5-5-x-5-5---|
d-----x-2-2-x-----x-3-3-x-----x-0-0-x-----x-3-3---|
a-------0-0---------------------------------------|
e-------------------------------------------------|


e-8-8-8-8-8-8-8-8-8-8---------------|
b-5-5-5-5-5-5-5-5-5-8---------------|
g-5-5-5-5-5-5-5-5-5-5---------------|
d-----------------------------------|
a-----------------------------------|
e-----------------------------------|

Rhythm behind solo

e-8-8--8-8-8-|
b-5-5--5-5-5-|
g-5-5--5-5-5-| x 4
d------------|
a------------|
e------------|

e----------------------------------|
b----------------------------------|
g--2-2-2-2-2-2-2-2-2-2-2-2-2-2-2-2-|
d----------------------------------|
a-0-0-0-3-0-0-0-3-0-0-0-3-0-0-0-3--|
e----------------------------------|

great song enjoi

tom kele
Tap to rate this tab
 
# A B C D E F G H I J K L M N O P Q R S T U V W X Y Z