Guitaretab - guitar tabs
Song name
# A B C D E F G H I J K L M N O P Q R S T U V W X Y Z

Freddie Stroma - Possibilities tab

-------------------------------------------------------------------------------
			     Possibilities - Freddie Stroma

						from the movie 
A Cinderella Story: Once Upon A Song
-------------------------------------------------------------------------------
Tabbed by: sfdye
Questions and comments please to tsfdye@gmail.com

It's my first time to make tabs. My girl friend loved this song, so I followed the movie
and tabbed it. It may not be 100% correct, But I'm sure it sounds almost perfect. Enjoy it.

Tuning: standard tuning
Capo: 2nd fret

Intro

e|-------------------------------------------------------------------|
B|-----3-------3--------1-------3--------3-------3-------1-------3---|
G|---0---0---0---0----0---0---0---0----0---0---0---0---0---0---0---0-|
D|-5-------4--------2-------4--------5-------4-------2-------4-------|
A|-------------------------------------------------------------------|
E|-------------------------------------------------------------------|
[ Tab from: http://www.guitaretab.com/f/freddie-stroma/304815.html ]
Verse 1:
   G           D              C
e|-------------------------------------------|
B|-3---3---3---3----1---1---1---1------------|
G|-0---0---2---2----0---0---0---0------------|
D|-----------0---0----2---2---2---2----------|
A|-------------------------------------------|
E|---3---3-----------------------------------|
Don't break my heart before I give it to you
   G           D              C
e|-------------------------------------------|
B|-3---3---3---3----1---1---1---1------------|
G|-0---0---2---2----0---0---0---0------------|
D|-----------0---0----2---2---2---2----------|
A|-------------------------------------------|
E|---3---3-----------------------------------|
Don't tell me no before I ask you to
   G           D              C
e|-------------------------------------------|
B|-3---3---3---3----1---1---1---1------------|
G|-0---0---2---2----0---0---0---0------------|
D|-----------0---0----2---2---2---2----------|
A|-------------------------------------------|
E|---3---3-----------------------------------|
Don't say it doesn't fit before you try it on
  Am                           D
e|------------------------------------|
B|-1---1---1---1----3---3---3---3-----|
G|-2---2---2---2----2---2---2---2-----|
D|---2---2---2---2----0---0---0---0---|
A|------------------------------------|
E|------------------------------------|
There's too much to lose to be wrong
  Am
e|----------0----------------0--------|
B|-1---1----1---1----1---1---1---1----|
G|-2---2--------2----2---2-------2----|
D|---2---2----2---2----2---2---2---2--|
A|------------------------------------|
E|------------------------------------|
And it feels like there's something here
  Em                          G
e|--------------------------------------|
B|-0---0---0---0----3---3---3---3-------|
G|-0---0---0---0----0---0---0---0-------|
D|---2---2---2---2----------------------|
A|--------------------------------------|
E|--------------------3---3---3---3-----|
But I wanna see it before it disappears
  Am
e|----------0----------------0--------|
B|-1---1----1---1----1---1---1---1----|
G|-2---2--------2----2---2-------2----|
D|---2---2----2---2----2---2---2---2--|
A|------------------------------------|
E|------------------------------------|
And if there's something real between me and you
  Em                 D
e|----------------------------------------------|
B|-0---0---0---0----3---3---3---3---------------|
G|-0---0---0---0----2---2---2---2---------------|
D|---2---2---2---2----0---0---0---0-------------|
A|----------------------------------------------|
E|----------------------------------------------|
Well are we both open to


Chorus 1:
  G          D         Em
e|-------------------------------------------------------------------|
B|-----3-------3--------1-------3--------3-------3-------1-------3---|
G|---0---0---0---0----0---0---0---0----0---0---0---0---0---0---0---0-|
D|-5-------4--------2-------4--------5-------4-------2-------4-------|
A|-------------------------------------------------------------------|
E|-------------------------------------------------------------------|
All these possibilities
  C              G    D   Em
So many little possibilities

e|------------------------------------------------------------------|
B|------0-------0-------0-------0-------1-------1-------3-------3---|
G|----0---0---0---0---0---0---0---0---0---0---0---0---0---0---0---0-|
D|--2-------0---------------------------------------0-------0-------|
A|------------------4-------3-------0-------0-----------------------|
E|------------------------------------------------------------------|
  C              Em
Right in front of us
  G
Close enough to touch
  Am							D
And far enough to have some time to see

e|-------------------------------------------------------------------|
B|-----3-------3--------1-------3--------3-------3-------1-------3---|
G|---0---0---0---0----0---0---0---0----0---0---0---0---0---0---0---0-|
D|-5-------4--------2-------4--------5-------4-------2-------4-------|
A|-------------------------------------------------------------------|
E|-------------------------------------------------------------------|
All these possibilities
Oh these possibilities

e|------------------------------------------------------------------|
B|------0-------0-------0-------0-------1-------1-------3-------3---|
G|----0---0---0---0---0---0---0---0---0---0---0---0---0---0---0---0-|
D|--2-------0---------------------------------------0-------0-------|
A|------------------4-------3-------0-------0-----------------------|
E|------------------------------------------------------------------|
Are written in the stars
We are who we are baby
And I can't help but think that possibly
There's possibility

Verse 2:
(same as first part)

Don't give me hope if there's nothing to this
Don't let me in if you're not there
What I'm feeling doesn't happen every day
So baby please play me fair

And it feels like there's something more
Than those crazy little crushes I've felt before
When you move in closer I can feel the rush
And now we're so close we can touch

Chorus 2:

All these possibilities
So many little possibilities
Right in front of us
Close enough to touch
And far enough to have some time to see

All these possibilities
Oh these possibilities
Are written in the stars
We are who we are baby
And I can't help but think that possibly
There's possibility


Hope you like it.
Please rate and comment :)
Related for Possibilities tab
Possibilities chords by Freddie Stroma