Song name
# A B C D E F G H I J K L M N O P Q R S T U V W X Y Z

Frederic Chopin - Fantasie Impromptu tab

-----------------------------------------------------------------------------
			     FANTASIE IMPROMPTU - Frederic Chopin
-----------------------------------------------------------------------------
Tabbed by: Travis Wong
Email: travis_wong@hotmail.com

4/4 Time.

Tuning: EADGBe

e|----|-------------|--0--|--3--|--1--0--|-------0---|----|----|----|-------|
B|----|--------1--3-|-----|-----|--------|--3------1-|----|----|----|-------|
G|--0-|--2--0-------|-----|-----|--------|-----------|--0-|--2-|--2-|-------|
D|----|-------------|-----|-----|--------|-----------|----|----|----|-------|
A|----|-------------|-----|-----|--------|-----------|----|----|----|-------|
E|----|-------------|-----|-----|--------|-----------|----|----|----|-------|

e|-----------0--|--1--0-|-----0-|-----------|--0------|---------------------|
B|--------3-----|-------|--3----|--1---0131-|-------3-|-3-------------------|
G|--3--2--------|-------|-------|-----------|---------|---------------------|
D|--------------|-------|-------|-----------|---------|---------------------|
A|--------------|-------|-------|-----------|---------|---------------------|
E|--------------|-------|-------|-----------|---------|---------------------|

e|-----|------------|--0--|--3--|--1--0-|-------0---|----|----|-----------0-|
B|-----|-------1--3-|-----|-----|-------|--3------1-|----|----|--------3----|
G|--0--|--2--0------|-----|-----|-------|-----------|--0-|--2-|--3--2-------|
D|-----|------------|-----|-----|-------|-----------|----|----|-------------|
A|-----|------------|-----|-----|-------|-----------|----|----|-------------|
E|-----|------------|-----|-----|-------|-----------|----|----|-------------|

e|--1--0--|--------0-|--------------|--0---------|--------------------------|
B|--------|--3-------|--1-----------|----------3-|--1-----------------------|
G|--------|----------|---------020--|------------|--------------------------|
D|--------|----------|-------4------|------------|--------------------------|
A|--------|----------|--------------|------------|--------------------------|
E|--------|----------|--------------|------------|--------------------------|

| /  slide up
| \  slide down
| h  hammer-on
| p  pull-off
| ~  vibrato
| +  harmonic
| x  Mute note
=============================================================================
Tap to rate this tab
# A B C D E F G H I J K L M N O P Q R S T U V W X Y Z