Guitaretab - guitar tabs
Song name
# A B C D E F G H I J K L M N O P Q R S T U V W X Y Z

Free - Walk In My Shadow tab

Song-Walk in My Shadow (Rodgers)
Band-Free
Tabbed by-Street Fighter


e|---------------------------------------------------------|
b|---------------------------------------------------------|
g|---------------------------------------------------------|
d|------5-5-----3----------5-5-----3-----------------------|
a|----------3-5---1-2----------3-5---1-2-------------------|
e|--3-3----------------3-3---------------------------------|
[ Tab from: http://www.guitaretab.com/f/free/73318.html ]
e|---------------------------------------------------------|
b|---------------------------------------------------------|
g|------5-5-----3----------5-5-----3-----------------------|
d|----------3-5---1-2----------3-5---1-2-------------------|
a|--3-3----------------3-3---------------------------------|
e|---------------------------------------------------------|

e|---------------------------------------------------------|
b|---------------------------------------------------------|
g|------7-7-----5----------5-5-----3-----------------------|
d|----------5-7---3-4----------3-5---1-2-------------------|
a|--5-5----------------3-3---------------------------------|
e|---------------------------------------------------------|

e|---------------------------------------------------------|
b|---------------------------------------------------------|
g|---------------------------------------------------------|
d|------5-5-----3------7--5--------------------------------|
a|----------3-5---1-2--5--3--7--5--------------------------|
e|--3-3----------------------5--3--------------------------|

Just the basics of the song.
Related for Walk In My Shadow tab
Advertisement will be closed in 10 seconds