Song name
# A B C D E F G H I J K L M N O P Q R S T U V W X Y Z

Freedom Call - Turn Back Time tab

Notes:
1. STANDARD TUNING. The song is actually a semi tone down from Standard but to save you 
I put it in Standard.
2. Look out for the Ebm (E flat Minor) and EbM (E flat Major). They make a huge difference.
3. The Solo isn't contructed well but it has the write notes. Just use your ear and fit them in.


Intro: Use your ear for the melody
Ebm Bb Ebm Ab Ebm Bb Ebm

[Verse 1]
Ebm                Bb         Ebm
A song of sadness, rhymes of pain
     Ab          Ebm      Bb         Ebm
The sounds of my tragedy out in the rain
Ab           Ebm  Bb          Ebm
Aww haww Ahh haww Out in the Rain
Ebm               Bb        Ebm
I made my way and left you alone
Ab        Ebm        Bb       Ebm
I have denied you to be on my own
Ab           Ebm  Bb          Ebm
Aww haww Ahh haww to be on my own

[Pre-Chorus]
Ab                  Ebm
While the years are passing by
      Cm            Ab        Bb
The flame is still burning inside
   Ab             Ebm
I still remember you and I
     Cm        Ab        Bb
Our love, it will never die

[Chorus]
           EbM
If I could turn back time
Ab     EbM Bb
Ease my desire
    Cm
I always remember
    Ab                         Bb
The sadness Iíve seen in your eyes

[Intro]


[Verse 2] Distortion
Ebm                        Bb           Ebm
I call for the master, Iím calling his name
   Ab           Ebm  Bb             Ebm
Mysterious laughter, tortures my brain
Ab           Ebm  Bb          Ebm
Aww haww Ahh haww Tortures my brain.
Ebm                 Bb
Stories of sadness, stories of pain
     Ab         Ebm          Bb           Ebm
Iím telling my tales to the wind and the rain
Ab           Ebm  Bb               Ebm
Aww haww Ahh haww to wind and the rain.

[Pre Chorus]
Ab               Ebm
All the dreams I had in my mind
      Cm      Ab        Bb
I was doing whatever I like
   Ab            Ebm
I still remember you and I
     Cm        Ab         Bb
Our love, it will never die

EbM        Bb
Turn back time
    Ab    EbM Bb
To ease my desire
  Cm
I always remember
    Ab                        Bb
The sadness Iíve seen in your eyes
           EbM        Bb
If I could turn back time
  Ab      EbM Bb
Relieve my desire
    Cm
It hurts me forever
        Ab                  Bb
That I lost the love of my life

Solo:

e|-----14-18-14-13-14-16-18---19-18-16-18-16-14----------------------|
B|-16----------------------------------------------------------------|
G|-------------------------------------------------------------------|
D|-------------------------------------------------------------------|
A|-------------------------------------------------------------------|
E|-------------------------------------------------------------------|
     H  O     H  O     H  O    H
e|13-14-13--11-13-11--10-11-10-11------------------------------------|
B|-------------------------------------------------------------------|
G|-------------------------------------------------------------------|
D|-------------------------------------------------------------------|
A|-------------------------------------------------------------------|
E|-------------------------------------------------------------------|

                            H
e|-11-14-18-14-19-18-16-16-18--19-18-16-18-16-14---------------------|
B|-16----------------------------------------------------------------|
G|-------------------------------------------------------------------|
D|-------------------------------------------------------------------|
A|-------------------------------------------------------------------|
E|-------------------------------------------------------------------|

     H  O     H  O     H  O    H
e|13-14-13--11-13-11--10-11-10-11------------------------------------|
B|-------------------------------------------------------------------|
G|-------------------------------------------------------------------|
D|-------------------------------------------------------------------|
A|-------------------------------------------------------------------|
E|-------------------------------------------------------------------|


e|-4--4-4--6--8--6---------8--8-8-6--4--4/6--------------------------|
B|------------------4--4---------------------------------------------|
G|-------------------------------------------------------------------|
D|-------------------------------------------------------------------|
A|-------------------------------------------------------------------|
E|-------------------------------------------------------------------|

e|-4--4-4--6--8--6---------8--8-8-10-11/13----------------------------|
B|------------------4--4----------------------------------------------|
G|--------------------------------------------------------------------|
D|--------------------------------------------------------------------|
A|--------------------------------------------------------------------|
E|--------------------------------------------------------------------|

EbM        Bb
Turn back time
    Ab     EbM Bb
To ease my desire
  Cm
I always remember
    Ab                        Bb
The sadness Iíve seen in your eyes
           EbM        Bb
If I could turn back time
  Ab       EbM Bb
Relieve my desire
    Cm
It hurts me forever
        Ab                  Bb
That I lost the love of my life

           EbM        Bb
If I could Turn back time
  Ab       EbM Bb
Relieve my desire
    Cm
It hurts me forever
        Ab                  Bb
That I lost the love of my life

e|-------------------------------------------------------------------|
B|-18(B)-16(ring)----------------------------------------------------|
G|-------------------------------------------------------------------|
D|-------------------------------------------------------------------|
A|-------------------------------------------------------------------|
E|-------------------------------------------------------------------|

Intro: Again use your ear :D
Tap to rate this tab
 
# A B C D E F G H I J K L M N O P Q R S T U V W X Y Z