Song name
# A B C D E F G H I J K L M N O P Q R S T U V W X Y Z

Freestyle - Half Crazy chords

Highlighted       Show chord diagrams
Half Crazy
by: Freestyle
Tabbed by: Josef Nery
Album: Live @19th east
Email:kyle_nery66@yahoo.com
Twitter:@josefcarlyle
Tuning: Half-step down

Intro:
|------------|------------|-10-8-7-5-3---0-|-0-2-2h3-5-2-0-|
|--------0---|------------|------------3---|---------------|
|------2-----|--------0---|----------------|---------------|
|----0-------|------4-----|----------------|---------------| 2x
|------------|---2--------|----------3-----|---------------|
|-3----------|-0----------|----------------|---------------|

 D   C  G                       Bm
Know I haven't slept a week at all
                   Am
Since you've been gone
Am  Bm   C
And my eyes are kinda tired 
      D                G
From crying all night long
D    C     G                     Bm               Am
Know I've never been too good at cooking just for one
Am   Bm   C                      D
It's so lonely here without you baby 
          G
Come back home

Chorus:
       D   C    Bm Em
'Cause I'm half crazy
C             D
Feelin' sorry for myself
  Bm    Em
Half crazy
C                  D               E
Worried you'd find someone else to love

Verse:
D     C    G                       Bm
Know life hasn't been much fun at all
                  Am
Since you've been gone
Am  Bm  C
And my eyes begin to fill
      D               G
Each time I hear our song
D  C     G                   Bm
I spent every minute asking myself
          Am
What went wrong
Am    Bm  C                   D
Can't we try to talk it over baby
          G
Come back home

Chorus:
       D   C    Bm Em
'Cause I'm half crazy
C                 D
Feelin' sorry for myself
Bm     Em
Half crazy
C                   D
Worried you'd find someone else
    Eb            F
But baby there is no-one else
    Dm  Gm
Half crazy
    Cm             F
For everything you say and do
   Dm   Gm
Half crazy
Cm                F             G
No one else could love you like I do

Adlib:
|--------|-3h5-3--10-|-7h8-7------|------12-10-|-7-8-10-|-15h17-15-22-|
|-0--1--3|-----------|------8p5-3-|-3h5-3------|--------|-------------|
|--------|-----------|------------|------------|--------|-------------|
|--------|-----------|------------|------------|--------|-------------|
|--------|-----------|------------|------------|--------|-------------|
|--------|-----------|------------|------------|--------|-------------|


|-19h20-19-15-12-10-|-10h12-10-17-15-|
|-------------------|----------------|
|-------------------|----------------|
|-------------------|----------------|
|-------------------|----------------|
|-------------------|----------------|

Chorus:
        D   C   Bm  Em
'Cause I'm half crazy
 C                 D
Feelin' sorry for myself
   Bm   Em
Half crazy
 C                  D
Worried you'd find someone else 
    Eb            F
But baby there is no-one else
   Dm   Gm
Half crazy
    Cm              F
For everything you say and do
   Dm   Gm
Half crazy
 Cm                F
No one else could love you and
F#                G#
No one else could ever be

  Fm    Bbm
Half crazy
Ebm           G#
Feeling sorry for myself
  Fm    Bbm
Half crazy
Ebm                      G#
I'm worried you'll find someone else
  Fm    Bbm
Half crazy
Ebm           G#
Feeling sorry for myself
   Fm   Bbm
Half Crazy 
Ebm                  G#             Bb
worried you'll find someone else to love
Tap to rate this tab
# A B C D E F G H I J K L M N O P Q R S T U V W X Y Z