Song name
# A B C D E F G H I J K L M N O P Q R S T U V W X Y Z

Freestyle - Half Crazy tab

Highlighted       Show chord diagrams
Hi I actually used my ears to make this intro :) so i hope you like it :D add me on Facebook sajiee roa :)

e|------------|-----------|
B|--------0---|-----------|
G|------2-----|--------0--|
D|----0-------|------4----|
A|------------|----2------|
E|--3---------|--0--------|

                 C
e|------------|--0-----------------|
B|--3-1-0-----|--1-----------------|
G|--------2---|--0----0-2-4-2-0----|
D|------------|--2--2------------2-|
A|------------|--3-----------------|
E|------------|--0-----------------|

e|------------|-----------|
B|--------0---|-----------|
G|------2-----|--------0--|
D|----0-------|------4----|
A|------------|----2------|
E|--3---------|--0--------|

                 C
e|------------|--0-----------------|
B|--3-1-0-----|--1-----------------|
G|--------2---|--0----0-2-4-2-0-2--|
D|------------|--2--2--------------|
A|------------|--3-----------------|
E|------------|--0-----------------|
Tap to rate this tab
# A B C D E F G H I J K L M N O P Q R S T U V W X Y Z