Song name
# A B C D E F G H I J K L M N O P Q R S T U V W X Y Z

Frente - Bizarre Love Triangle tab

Frente - Bizarre Love Triangle (Acoustic)
-------------------------------------------
Capo 1st fret

Vers 1 tabs only has the first half and has some mistakes. Vers 2 tabs is close but 
isn't perfect. I think these tabs are good. Let me know if anything is wrong.


  C
E ------------------------|
B ------------1-----------|
G --------0-------0-------|
D ----2---------------2---|
A 3-----------------------|
E (triplets)--------------|
  ^  .  ^  .  ^  .  ^  .
[intro]

  Fmaj7            G                Em               F
E ------0---------|----------------|----------------|----------------|
B ----1-------1---|3-----3-----3---|0-----0-----0---|1-----1-----1---|
G --2-------2---2-|--0-----0-----0-|--0-----0-----0-|--2-----2-----2-|
D 3---------------|----0-----0-----|----2-----2-----|----3-----3-----|
A ----------------|----------------|----------------|----------------|
E ----------------|----------------|----------------|----------------|
  ^ . ^ . ^ . ^ .  ^ . ^ . ^ . ^ .  ^ . ^ . ^ . ^ .  ^ . ^ . ^ . ^ .
 Every time I think of you I get a shot right through into a bolt of blue

  F                G                Em               F     F(#4)
E ----------------|--------3-------|--------0-------|----------------|
B 1-----1-----1---|3-----3---------|0-----0-------0-|1-----0-----0---|
G --2-----2-----0-|--0---------0---|--0---------0---|--2-----------2-|
D ----3-----3-----|----0---------0-|----2-----------|----3-----------|
A ----------------|----------------|----------------|----------------|
E ----------------|----------------|----------------|----------------|
  ^ . ^ . ^ . ^ .  ^ . ^ . ^ . ^ .  ^ . ^ . ^ . ^ .  ^ . ^ . ^ . ^ .
 It's no problem of mine but it's a problem I find,
                                   living a life that I can't leave behind

  F                G                Em               F
E ----------------|--------3-------|----------------|----------------|
B 1-----1-----1---|3-----3---3-----|0-----0-----0---|1-----1-----1---|
G --2-----2-----0-|--0---------0---|--0-----0-----0-|--2-----------2-|
D ----3-----3-----|----0---------0-|----2-----2-----|----3-----3-----|
A ----------------|----------------|----------------|----------------|
E ----------------|----------------|----------------|----------------|
  ^ . ^ . ^ . ^ .  ^ . ^ . ^ . ^ .  ^ . ^ . ^ . ^ .  ^ . ^ . ^ . ^ .
 There's no sense in telling me, the wisdom of a fool won't set you free

  F                G                Em               F
E ----------------|--------3-------|----------------|----------------|
B 1-----1-----1---|3-----3---3-----|0-----0-----0---|1-----1-----1---|
G --2-----2-----0-|--0---------0---|--0-----0-----0-|--2-----2-----2-|
D ----3-----3-----|----0---------0-|----2-----2-----|----3-----3-----|
A ----------------|----------------|----------------|----------------|
E ----------------|----------------|----------------|----------------|
  ^ . ^ . ^ . ^ .  ^ . ^ . ^ . ^ .  ^ . ^ . ^ . ^ .  ^ . ^ . ^ . ^ .
 But that's the way that it goes and it's what nobody knows,
                                   and every day my confusion grows

  Fmaj7            G(9)             Em               F     F(#4)
E ----------0-----|--------5-------|--------0-------|----------------|
B 1-------1---1---|3-----3---------|0-----0---0-----|1-----0---------|
G --2---2-------2-|--4---------4---|--0---------0---|--2---------2---|
D ----3-----------|----5---------5-|----2---------0-|----3-----3---3-|
A ----------------|----------------|----------------|----------------|
E ----------------|----------------|----------------|----------------|
  ^ . ^ . ^ . ^ .  ^ . ^ . ^ . ^ .  ^ . ^ . ^ . ^ .  ^ . ^ . ^ . ^ .
 Every time I see you falling, I get down on my knees and pray

  F                G                Em               F
E ----------------|----------------|--------0-------|----------------|
B 1-----0-----0---|3-----0---------|0-----0---0-----|1-----1-----1---|
G --2-----2-----2-|--4---------4---|--0---------0---|--2-----2-----0-|
D ----3-----3-----|----5-----5---5-|----2---------0-|----3-----3-----|
A ----------------|----------------|----------------|----------------|
E ----------------|----------------|----------------|----------------|
  ^ . ^ . ^ . ^ .  ^ . ^ . ^ . ^ .  ^ . ^ . ^ . ^ .  ^ . ^ . ^ . ^ .
I'm waiting for that final moment you say the words that I can't say

  C
E ------------------------|
B ------------1-----------|
G --------0-------0-------|
D ----2---------------2---|
A 3-----------------------|
E (triplets)--------------|
  ^  .  ^  .  ^  .  ^  .

  Fmaj7            G                Em               F
E ------0---------|--3-------------|----------------|----------------|
B ----1-----1-----|3---3-----3-----|0-------0-------|1-----1-----1---|
G --2---------2---|------0-----0---|--0-------0-----|--2-----2-----2-|
D 3-------------3-|--------------0-|----2-------2---|----3-----3-----|
A ----------------|----------------|----------------|----------------|
E ----------------|----------------|----------------|----------------|
  ^ . ^ . ^ . ^ .  ^ . ^ . ^ . ^ .  ^ . ^ . ^ . ^ .  ^ . ^ . ^ . ^ .
 I feel fine and I feel good I feel like I never should

  F                G(9)             Em               F
E ----------------|----------------|----------------|----------------|
B 1-----1-----1---|3-----3-----3---|0-----0-----0---|1-----1-----1---|
G --2-----2-----2-|--4-----4-----0-|--0-----0-----0-|--2-----2-----2-|
D ----3-----3-----|----5-----5-----|----2-----2-----|----3-----3-----|
A ----------------|----------------|----------------|----------------|
E ----------------|----------------|----------------|----------------|
  ^ . ^ . ^ . ^ .  ^ . ^ . ^ . ^ .  ^ . ^ . ^ . ^ .  ^ . ^ . ^ . ^ .
 Whenever I get this way I just don't know what to say,
                                  Why can't we be ourselves like we were

yesterday

  F                G                Em               F
E ----------------|--------3-------|----------------|----------------|
B 1-----1-----1---|3-----3---------|0-----0-----0---|1-----1-----1---|
G --2-----2-----0-|--0---------0---|--0-----0-----0-|--2-----2-----2-|
D ----3-----3-----|----0---------0-|----2-----2-----|----3-----3-----|
A ----------------|----------------|----------------|----------------|
E ----------------|----------------|----------------|----------------|
  ^ . ^ . ^ . ^ .  ^ . ^ . ^ . ^ .  ^ . ^ . ^ . ^ .  ^ . ^ . ^ . ^ .
 I'm not sure what this could mean, I don't think you're what you seem

  F                G                Em               F
E ----------------|--3-------3-----|----------------|----------------|
B 1-----1-----1---|3-------3---3---|0-----0-----0---|1-----1-----1---|
G --2-----2-----0-|------0-------0-|--0-----0-----0-|--2-----------2-|
D ----3-----3-----|----------------|----2-----2-----|----3-----------|
A ----------------|----------------|----------------|----------------|
E ----------------|----------------|----------------|----------------|
  ^ . ^ . ^ . ^ .  ^ . ^ . ^ . ^ .  ^ . ^ . ^ . ^ .  ^ . ^ . ^ . ^ .
 I do admit to myself that if I hurt someone else,
                                   Then I'd never see just what we're meant be

  F                G(9)             Em               F
E ----------------|----------------|--------0-------|----------------|
B 1-----1-----1---|3-----3-----3---|0-----0---0-----|1-----1-------1-|
G --2-----2-----0-|--4-----4-------|--0---------0---|--2-------2-----|
D ----3-----3-----|----5-----5---5-|----2---------0-|----3-------3---|
A ----------------|----------------|----------------|----------------|
E ----------------|----------------|----------------|----------------|
  ^ . ^ . ^ . ^ .  ^ . ^ . ^ . ^ .  ^ . ^ . ^ . ^ .  ^ . ^ . ^ . ^ .
 Every time I see you falling, I get down on my knees and pray

  F                G(9)             Em               F
E ----------------|----------------|----------------|----------------|
B 1-----1-----1---|3-----3-----3---|0-----0-----0---|1-----1-----1---|
G --2-----2-----0-|--4-----4-------|--0-----0-----2-|--2-----2-----2-|
D ----3-----3-----|----5-----5---5-|----2-----2-----|----3-----3-----|
A ----------------|----------------|----------------|----------------|
E ----------------|----------------|----------------|----------------|
  ^ . ^ . ^ . ^ .  ^ . ^ . ^ . ^ .  ^ . ^ . ^ . ^ .  ^ . ^ . ^ . ^ .
I'm waiting for that final moment you say the words that I can't say

  F                G(9)             Em               F
E ----------------|--------0-------|--------------0-|----------------|
B 1---1-------1---|3-----3---3-----|0-----0-----0---|1-----1-----1---|
G --2---2---2---2-|--4---------4---|--0-----0-------|--2-----2-----2-|
D --------3-------|----5---------5-|----2-----2-----|----3-----3-----|
A ----------------|----------------|----------------|----------------|
E ----------------|----------------|----------------|----------------|
  ^ . ^ . ^ . ^ .  ^ . ^ . ^ . ^ .  ^ . ^ . ^ . ^ .  ^ . ^ . ^ . ^ .
 Every time I see you falling, I get down on my knees and pray

  F                G(9)             Em               Fmaj7
E ----------------|--------0-------|--------0-------|----------------|
B 1-----1-----1---|3-----3---3-----|0-----0---0-----|--1-----1-------|
G --2-----2-------|--4---------4---|--0---------0---|2---2-----2-----|
D ----3-----3-----|----5---------5-|----2---------0-|------3-----3---|
A ----------------|----------------|----------------|--------------0-|
E ----------------|----------------|----------------|----------------|
  ^ . ^ . ^ . ^ .  ^ . ^ . ^ . ^ .  ^ . ^ . ^ . ^ .  ^ . ^ . ^ . ^ .
I'm waiting for that final moment you say the words that I can't say

 C
E ------------------------|
B 1-----------------------|
G 0-----------------------|
D 2-----------------------|
A 3-----------------------|
E ------------------------|
  ^  .  ^  .  ^  .  ^  .
Tap to rate this tab
 
# A B C D E F G H I J K L M N O P Q R S T U V W X Y Z