Guitaretab - guitar tabs
Song name
# A B C D E F G H I J K L M N O P Q R S T U V W X Y Z

Frente - Bizarre Love Triangle tab

by Gomain@gmail.com



                   |3||3|
                   EEEEEE  SSSSSSSS  SSSSSSSS  SSSSSSSS  SSSSSSSS  SSSSSSSS
                E|-------|----0----|---------|---------|---------|---------|
                B|----1--|---1-1-1-|-3--3--3-|-0--0--0-|-1--1--1-|-1--1--1-|
                G|---0-0-|--2---2-0|--0--0--0|--0--0--0|--2--2--2|--2--2--0|
Acoustic Guitar D|--2---0|-3-------|---0--0--|---2--2--|---3--3--|---3--3--|
                A|-3-----|---------|---------|---------|---------|---------|
                E|-------|---------|---------|---------|---------|---------|






   SSSSE SS  SSSSE SS  SSSS E SS    SSSSSSSS  SSSSSSSS  SSSSSSSS  SSSS SSSS
E|-----3---|-----0---|-----------||---------|-----3---|---------|----------|
B|-3--3----|-0--0----|-1--0+0-0--||-1--1--1-|-3--3-3--|-0--0--0-|-1--1+1-1-|
G|--0----0-|--0----0-|--2------2-||--2--2--0|--0----0-|--0--0--0|--2------2|
D|---0----0|---2----0|---3-------||---3--3--|---0----0|---2--2--|---3---3--|
A|---------|---------|-----------||---------|---------|---------|----------|
E|---------|---------|-----------||---------|---------|---------|----------|






   SSSSSSSS  SSSSSSSS  SSSSSSSS  SSSSSSSS    SSSSSSSS  SSSSE SS  SSSSSSE
E|---------|-----3---|---------|----------||------0--|-----5---|-----0---|
B|-1--1--1-|-3--3-3--|-0--0--0-|-1--1--1--||-1---1-1-|-3--3----|-0--0-0--|
G|--2--2--0|--0----0-|--0--0--0|--2--2--2-||--2-2---2|--4----0-|--0----0-|
D|---3--3--|---0----0|---2--2--|---3--3---||---3-----|---5----0|---2-----|
A|---------|---------|---------|----------||---------|---------|---------|
E|---------|---------|---------|----------||---------|---------|---------|





                                                     |3||3|
   SSSSSE S  SSSSSSSS  SSSSSSSS  SSSSSSE   SSSSSSSS  EEEEEE    SSSSSSS S
E|---------|---------|---------|-----0---|---------|--------||----0-----|
B|-1--0----|-1--0--0-|-3--0--0-|-0--0-0--|-1--1--1-|----1---||---1--1---|
G|--2--2--2|--2--2--0|--4--4--0|--0----0-|--2--2--0|---0-0--||--2--2-2-5|
D|---3--3--|---3--3--|---5--5--|---2-----|---3--3--|--2---0-||-3--------|
A|---------|---------|---------|---------|---------|-3------||----------|
E|---------|---------|---------|---------|---------|--------||----------|






   SSSS SSSS  SSE SSE   SSSSSSSS  SSSSSSSS  SSSSSSSS  SSSSSSSS  SSSSSSSS
E|--3-------|---------|---------|---------|---------|---------|----------||
B|-3-3---3--|-0---0---|-1--1--1-|-1--1--1-|-3--3--3-|-0--0--0-|-1--1--1--||
G|----0+0-0-|--0---0--|--2--2--2|--2--2--2|--4--4--0|--0--0--0|--2--2--2-||
D|---------0|---2---2-|---3--3--|---3--3--|---5--5--|---2--2--|---3--3---||
A|----------|---------|---------|---------|---------|---------|----------||
E|----------|---------|---------|---------|---------|---------|----------||





[ Tab from: http://www.guitaretab.com/f/frente/6716.html ]
   SSSSSSSS  SSSSE SS  SSSSSSSS  SSSSSSSS  SSSSSSSS  SE SSSSS  SSSSSSSS
E|---------|-----3---|---------|---------|---------|--3---3--|---------|
B|-1--1--1-|-3--3----|-0--0--0-|-1--1--1-|-1--1--1-|-3---3-3-|-0--0--0-|
G|--2--2--0|--0----0-|--0--0--0|--2--2--2|--2--2--0|----0---0|--0--0--0|
D|---3--3--|---0----0|---2--2--|---3--3--|---3--3--|---------|---2--2--|
A|---------|---------|---------|---------|---------|---------|---------|
E|---------|---------|---------|---------|---------|---------|---------|






   SSSS E SS    SSSSSSSS  SSSSSSSS  SSSSSSE   SSSS SSSS  SSSSSSSS  SSSSSSSS
E|-----------||---------|---------|-----0---|----------|---------|---------|
B|-1--1+1-1--||-1--1--1-|-3--3--0-|-0--0-0--|-1--1+1--1|-1--1--1-|-3--3--0-|
G|--2------2-||--2--2--0|--4--4--0|--0----0-|--2----2--|--2--2--2|--4--4--0|
D|---3-------||---3--3--|---5--5--|---2-----|---3----3-|---3--3--|---5--5--|
A|-----------||---------|---------|---------|----------|---------|---------|
E|-----------||---------|---------|---------|----------|---------|---------|






   SSSSSSSS  SSSSSSSS    SSSSSSSS  SSSSSSSS  SSSSSSSS  SSSSSSSS  SSSSSSSS
E|---------|----------||---------|-----0---|--------0|---------|---------|
B|-0--0--0-|-1--1--1--||-1-1---1-|-3--3-3--|-0--0--0-|-1--1--1-|-1--1--1-|
G|--0--0--0|--2--2--2-||--2-2-2-2|--4----4-|--0--0---|--2--2--2|--2--2--2|
D|---2--2--|---3--3---||-----3---|---5----5|---2--2--|---3--3--|---3--3--|
A|---------|----------||---------|---------|---------|---------|---------|
E|---------|----------||---------|---------|---------|---------|---------|






   SSSSSSSS  SSSSSSS S  SSSSSSSS  H
E|-----0---|-----0----|---------|---------|
B|-3--3-3--|-0--0-0---|--1--1---|-1-------|
G|--4----4-|--0----0-0|-2-2--2--|-0-------|
D|---5----5|---2-----2|-3--3--3-|-2-------|
A|---------|----------|--------0|-3-------|
E|---------|----------|---------|---------|




What do all the symbols mean?
-----------------------------

W - whole note (semibreve)
H - half note (minim)
Q - quarter note (crotchet)
E - 8th note (quaver)
S - 16th note (semiquaver)
T - 32nd note (demisemi quaver)
X - 64th note (hemidemisemi quaver)

If a dot appears after one of the above then it means that the note is 1.5
times as long, e.g. Q. is 3 8th notes long. Two dots means 1.75 times long.

If a '+' sign appears after a note then that note is tied to (held on to) the
next note.

 ______
|1.    | - play bar/s under this sign first time only in repeats

|2.    | - play bar/s under this sign second time only in repeats

|1.3.  | - play bar/s under this sign first and third time only in repeats

||
||*
||*      - Repeat back to this sign
||

 ||
*||
*||      - Repeat from this sign
 ||


|-3-|    - Triplet

___________________________________________________________
Created using Sibelius 3 - http://www.sibelius.com/
Related for Bizarre Love Triangle tab
×
Best way to learn
"Bizarre Love Triangle"