Song name
# A B C D E F G H I J K L M N O P Q R S T U V W X Y Z

Friday All Summer - Love Story tab


this is the guitar solos for 'love story' covered by friday all summer :D
(all by ear so just listen to the song carefully to know how many times u have to play 
note [:)

link to Friday All Summer::::: http://www.purevolume.com/FridayAllSummer


E|--------------------------------------|
B|--3-3-5-3-5/7-5-3-3-5-3-3-7-5---------|
G|--------------------------------------|
D|--------------------------------------|
A|--------------------------------------|
E|--------------------------------------|(2x)
                                      play this part faster
E|--------------------------------|-------------------------10----|
B|-8-8-8-8-7-7-7-7-8-8-8-10-10-10-|8(8x)-7(7x)-8(4x)-10(5x)-------|
G|--------------------------------|-------------------------------|
D|--------------------------------|-------------------------------|
A|--------------------------------|-------------------------------|
E|--------------------------------|-------------------------------|

second guitar solo
E|--------------------------------------|
B|--5-5-7-5-7/9-7-----------------------|
G|--------------------------------------|
D|--------------------------------------|
A|--------------------------------------|
E|--------------------------------------|(3x)

E|----------------------------------------------------------------------------------------------|
B|--5-5-7-5-5-9-7-10-10-10-10-9-9-9-9-10-10-10-10-12-12-12-12-10-10-9-9-10-10-10-12-12-12-12----|
G|----------------------------------------------------------------------------------------------|
D|----------------------------------------------------------------------------------------------|
E|----------------------------------------------------------------------------------------------|
Tap to rate this tab
# A B C D E F G H I J K L M N O P Q R S T U V W X Y Z