Song name
# A B C D E F G H I J K L M N O P Q R S T U V W X Y Z

From Indian Lakes - We Never Dream Acoustic tab

Song:We Never Dream (Acoustic)
Artist: From Indian Lakes

Based off of this video
http://www.youtube.com/watch?v=j7_9x_5WI20

This is just Joey, the singer's guitar part on rhythm
He strums with fingers not a pick but is very good at it.
If you can't strum firmly with fingers a picks sounds fine

Intro/Verse:
e|------|----------------------------------------|
B|------|----------------------------------------|
G|---6--|--------6-----------6--------6----------|
D|---4--|--8--4--4--8--4--4--4--8--4--4--8--4----|  X2
A|---6--|--8--4--6--8--4--4--6--8--4--6--8--4----|
E|------|--6--2-----6--2--2-----6--2-----6--2----|

Chorus:
e|-----------------------------------------------|
B|-----------------------------------------------|
G|-----------------------------------------------|
D|---9--6/9--4-----------------------------------|  X2
A|---9--6/9--4-----------------------------------|
E|---7--4/7--2-----------------------------------|
 play fast^

Bridge to Verse:
e|--------------------------------------------------|
B|-------------------------6------------------------|
G|-------------10-------x--x------------------------|
D|-----4-4-8-11--11-8---6--6------------------------|
A|--4-6-6---------------6--6------------------------|
E|----------------------4--4------------------------|

Verse 2:
e|-----------------------------------------------|
B|-----------------------------------------------|
G|---------------6-----------6--------6----------|
D|---------8--4--4--8--4--4--4--8--4--4--8--4----|  X1
A|---------8--4--6--8--4--4--6--8--4--6--8--4----|
E|---------6--2-----6--2--2-----6--2-----6--2----|

Bridge to Chorus:
e|-----------------------------------------------|
B|-------------------------6---------------------|
G|-------------10-------x--x---------------------|
D|-----4-4-8-11--11-8---6--6---------------------|
A|--4-6-6---------------6--6---------------------|
E|----------------------4--4---------------------|

Chorus:
e|-----------------------------------------------|
B|-----------------------------------------------|
G|-----------------------------------------------|
D|---9--6/9--4-----------------------------------|  X2
A|---9--6/9--4-----------------------------------|
E|---7--4/7--2-----------------------------------|
 play fast^

e|-----------------------|--------------------------|
B|-----------------------|--------------------------|
G|---6--6-----6----------|---6----------------------|
D|---4--4--6--4--4--6----|---4----------------------|
A|---6--4--6--6--6--6----|---6----------------------|
E|---------4-----7--4----|--------------------------|
                   play a lot^
e|-----------------------------------------------|
B|-----------------------------------------------|
G|---6--6--4--6---6--6--4--4/6--6----------------|
D|---4--4--4--6---4--4--4--4/6--4----------------|
A|---6--4--2--4---6--4--2--2/4--6----------------|
E|-----------------------------------------------|
         play quick and hold out^
Tap to rate this tab
# A B C D E F G H I J K L M N O P Q R S T U V W X Y Z