Song name
# A B C D E F G H I J K L M N O P Q R S T U V W X Y Z

Frozen Fire - Never tab

frozen fire, never {corrected}.
 Tabbed by tim lindberg, bizkitsk8er1216@aol.com.
  
never by frozen fire

intro   4 times

|--9-9-7-7-5-5-7-7-9-9-7-7-5-5-7-7-------------------|
|---9-9-7-7-5-5-7-7-9-9-7-7-5-5-7-7------------------|
|----------------------------------------------------|
|----------------------------------------------------|
|----------------------------------------------------|
|----------------------------------------------------|

bass    comes in on 3rd intro

|----------------------------------------------------|
|----------------------------------------------------|
|----------------------------------------------------|
|-4-4-4-4-2-2-2-2-0-0-0-0-2-2-2-2--------------------|

verse 1  (palm muted)   6 times

|----------------------------------------------------|
|----------------------------------------------------|
|----------------------------------------------------|
|--7-7-7-7-5-5-5-5-4-4-4-4-5-5-5-5-------------------|
|--7-7-7-7-5-5-5-5-4-4-4-4-5-5-5-5-------------------|
|--5-5-5-5-3-3-3-3-2-2-2-2-3-3-3-3-------------------|

chorus    8 times

|----------------------------------------------------|
|----------------------------------------------------|
|----------------------------------------------------|
|--5-5-5-5-6-6-6-6-4-4-4-4-4-4-4-4-------------------|
|--5-5-5-5-6-6-6-6-4-4-4-4-4-4-4-4-------------------|
|--3-3-3-3-4-4-4-4-2-2-2-2-2-2-2-2-------------------|

verse 2    6 times

|----------------------------------------------------|
|----------------------------------------------------|
|----------------------------------------------------|
|--7-7-7-7-5-5-5-5-4-4-4-4-5-5-5-5-------------------|
|--7-7-7-7-5-5-5-5-4-4-4-4-5-5-5-5-------------------|
|--5-5-5-5-3-3-3-3-2-2-2-2-3-3-3-3-------------------|


chorus again   8 times

|----------------------------------------------------|
|----------------------------------------------------|
|----------------------------------------------------|
|--5-5-5-5-6-6-6-6-4-4-4-4-4-4-4-4-------------------|
|--5-5-5-5-6-6-6-6-4-4-4-4-4-4-4-4-------------------|
|--3-3-3-3-4-4-4-4-2-2-2-2-2-2-2-2-------------------|

outro 

|----------------------------------------------------|
|----------------------------------------------------|
|----------------------------------------------------|
|--7-7-7-7-5-5-5-5-4-4-4-4-5-------------------------|
|--7-7-7-7-5-5-5-5-4-4-4-4-5-let ring----------------|
|--5-5-5-5-3-3-3-3-2-2-2-2-3-------------------------|


 
:: Ultimate Guitar Archive :: 
http://www.ultimate-guitar.com 



Tap to rate this tab
 
# A B C D E F G H I J K L M N O P Q R S T U V W X Y Z