Song name
# A B C D E F G H I J K L M N O P Q R S T U V W X Y Z

Frusciante John - The Battle Of Time tab

Help us improve GuitareTab! Take a short survey!
#----------------------------------PLEASE NOTE--------------------------------#
#This file is the author's own work and represents their interpretation of the#
#song. You may only use this file for private study, scholarship, or research.#
#-----------------------------------------------------------------------------#

Author/Artist: John Frusciante
Title: The Battle of Time
Transcribed by: Itay Auerbach
Email: itay7@newmail.net


Organ: (Trnascribed to guitar)
--------|----------|--------|----------|--------|--------|---------|----------
--------|----------|--------|----------|--------|----0---|-2--0----|----------
-2----1-|-2------4-|-2----1-|-2------4-|-1---2--|-1----2-|---------|----2-4---
--------|------0---|--------|------0---|--------|--------|-------4-|----------
--------|----------|--------|----------|--------|--------|---------|----------
--------|----------|--------|----------|--------|--------|---------|----------
Guitar Chords:
 A    G#  A    D B  A     D   A    D B   G#  A    G#   A   C# B  F#     A B   

(0:00)



--------0-|--------|-------0-|----------|--------|---------|------------------
-2---0----|-2------|-2---0---|-2--------|--------|----0----|------------------
----------|----2-4-|---------|------2-4-|-1----2-|-1-----2-|------------------
----------|--------|---------|----------|--------|---------|------------------
----------|--------|---------|----------|--------|---------|------------------
----------|--------|---------|----------|--------|---------|------------------
 C#  B     C#  A B  C#   B     C#   A B   G#   A   G#    A                    

(0:21)



A#    C  B        C# G# E A#  X6    A G# F   A G# F    

(0:37)



C# G# E A# (repeat this until end)

(1:32)


Guitar solo:

-13--12-10-12--9--8-6-8---------------------------------13--12-10-12--9-8-6-8-
-------------------------10--9-7-9--7--5-4-5----------------------------------
------------------------------------------------------------------------------
----------------------------------------------9--7-6-7------------------------
------------------------------------------------------------------------------
------------------------------------------------------------------------------
(1:52)                                                                              

-12-12-9--9b---13--12-10-12--9--8-6-8-----------------------------------------
---------------------------------------10--9-7-9--7--5-4-5--------------------
-------------------------------------------------------------------------7----
------------------------------------------------------------9--7-6-7--7-9--9--
------------------------------------------------------------------------------
------------------------------------------------------------------------------
                                                                              

------------------------------------------------------------------------------
-------------12b-12b-12b-12b-12b--12b-12b-12b-12b--9-11-----------------------
------7-----------------------------------------------------------------------
--7-9---6---------------------------------------------------------------------
------------------------------------------------------------------------------
------------------------------------------------------------------------------
Related for The Battle Of Time tab