Song name
# A B C D E F G H I J K L M N O P Q R S T U V W X Y Z

Frusciante John - Running Away Into You tab

Strum Bm at the start...

--------|---------------------------|----------------------|------------------|
-----7--|-------10-------10------7--|-------10------10--7--|--Strum--------7--|
---7----|----11--------9-------7----|----11-------9-----7--|---Bm--------7----|
-9------|-12--------11-------9------|-12-------11-------9--|-----------9------|
--------|---------------------------|----------------------|------------------|
--------|---------------------------|----------------------|------------------|


---------------------------|----------------------|----------------------------|
-------10-------10------7--|-------10------10--7--|--Strum The Chord Bm For----|
----11--------9-------7----|----11-------9-----7--|----------------------------|
-12--------11-------9------|-12-------11-------9--|----------Awhile------------|
---------------------------|----------------------|----------------------------|
---------------------------|----------------------|----------------------------|


-----------|-------10-------10-----7--|-------10-------10--x--|---------------|
--------12-|----12-------12------8----|----12-------12-----x--|---------------|
-----11----|-12-------11-------9------|-12-------11--------x--|----Strum Bm---|
--12-------|--------------------------|-----------------------|---------------|
-----------|--------------------------|-----------------------|---------------|
-----------|--------------------------|-----------------------|---------------|


--------|-----------------------------|-------------------------|-------------|
-----7--|-------10-------10--------7--|---------10-------10--7--|--strum-Bm---|
---7----|----11--------9---------7----|------11--------9-----7--|-------------|
-9------|-12--------11-----11--9------|-9-12--------11-------9--|-and repeat--|
--------|-----------------------------|-------------------------|-------------|
--------|-----------------------------|-------------------------|-------------|
Tap to rate this tab
# A B C D E F G H I J K L M N O P Q R S T U V W X Y Z