Song name
# A B C D E F G H I J K L M N O P Q R S T U V W X Y Z

Frying Rats - Spiders tab

"Spiders"- The Frying Rats

Guitar 1
e|--------------------|
B|--------------------|
G|--------------------|
D|-5---6-----4--------|
A|-5---6-----4--------|
E|-3-0-4-0h2-2--------|  Repeat 10 times

Guitar 2
e|--------------------|
B|--------------------|
G|--------------------|
D|-5-6-x-------4~-----|
A|-5-6-x-------4~-----|
E|-3-4-x-0h2p0-2~-----| Repeat 10 times


Lyrics:
Spiders
Spiders
Dying in a stream

Spiders
Spiders
Living their own dream

(Chorus)
Yeah.....

...!...!...!

Spiders
Spiders
Frying rats and that

Spiders
Spiders
Living their own dream

(Chorus)
Tap to rate this tab
# A B C D E F G H I J K L M N O P Q R S T U V W X Y Z