Song name
# A B C D E F G H I J K L M N O P Q R S T U V W X Y Z

Fu Manchu - Godzilla tab

Intro

e|---------------------------|play a few times and lead joins in
b|---------------------------|
g|---------------------------|
d|------3-5--------7-8-------|
a|-3-3--1-3-5-6-6--5-6-8-3-3-|
e|-1-1------3-4-4------6-1-1-|

Lead

|------|x4  Then wah lead comes in on the rythem
|------|
|-10~8~|
|------|
|------|
|------|

Wah Lead

|------------------|
|----------12r-10--|
|---8-9-10-12r-10--|
|-7-8-9-10---------|
|------------------|
|------------------|

Rhythem

|-----------------|
|-----------------|
|-----------------|
|-3-3-3-3-5-5-5-5-|
|-3-3-3-3-5-5-5-5-|
|-1-1-1-1-3-3-3-3-|
  . .     . .      p.m.
Tap to rate this tab
# A B C D E F G H I J K L M N O P Q R S T U V W X Y Z