Song name
# A B C D E F G H I J K L M N O P Q R S T U V W X Y Z

Fu Manchu - Over The Edge tab

This works really well for me, and its sounds great, im not sure on the chorus but the 
is spot on! anyway enjoy! (btw i did this by ear)

I first heard this on Billabong Odessey

Intro:             (Heavy Distortion)
-----------------------------------------------|
-----------------------------------------------|
---------3---3--5-5----------------------------|
--3-3-3--3-3-3--5-5----------------------------|
--3-3-3--1-3-1--3-3----------------------------|
--1-1-1----1-----------------------------------|


Chorus:

-----------------------------------------------|
-----------------------------------------------|
--33333333333---5-----------7------------------|
--33333333333---5--0--5--0--7--0--7------------|
--11111111111---3--0--5--0--5--0--7------------|
-------------------0--3--0-----0--5------------|

" Im over the edge...."

im still not sure on the Chorus, but the intro ROCKS!
ok enjoy the tab!
Tap to rate this tab
# A B C D E F G H I J K L M N O P Q R S T U V W X Y Z