Song name
# A B C D E F G H I J K L M N O P Q R S T U V W X Y Z

Fuel - Going To California tab

fuel
going to california
from the something like human cd extra
the last tab of this song was good but unfortunately
alot was left out so here is a more comeplete version
of it.
intro                         last time
|--------0-----0-----0-------|-------0-----0-2-3-2-|
|----------3-----3-----3---3-|---------3---3-3-3-3-|
|---2--------2-----2-----2---|---2-------2-2-2-2-2-|
|-0---0----------------------|-0---0-------0-0-0-0-|
|----------------------------|---------------------|
|----------------------------|---------------------|

verse
all the verses are played this way except for the
"seems like the wrath of..." part where it switches
to a Dm instead of G

|---3---------------------3------------------------|
|---3---------------------3------------------------|
|---0---------------------0------------------------|
|---0-strum a few times---0-strum a few times etc.-|
|---2---------------------2------------------------|
|-3-3-------------------3-3------------------------|

verse continued

|-------0-----0-----0-------------0-----0-2-3-2----|
|---------3-----3-----3---3---------3---3-3-3-3----|
|---2-------2-----2-----2-----2-------2-2-2-2-2----|
|-0---0---------------------0---0-------0-0-0-0----|
|--------------------------------------------------|
|--------------------------------------------------|

riff between verses

|-0-0-3-0-0-0-0-0-------0-----0-2-3-2-0-0-2-0------|
|-3-3-3-3-1-1-3-1---------3---3-3-3-3-3-3-3-3------|
|-2-2-2-2-0-0-0-0---2-------2-2-2-2-2-2-2-2-2------|
|-0-0-0-0-2-2-2-2-0---0-------0-0-0-0-0-0-0-0------|
|---------3-3-3-3----------------------------------|
|--------------------------------------------------|

|-0-0-0-0-------0-----0-----0-------0-0-0-0--------|
|-1-1-3-1---------3-----3-----3---3-3-3-3-3--------|
|-0-0-0-0---2-------2-----2-----2---2-2-2-2--------|
|-2-2-2-2-0---0---------------------0-0-0-0--------|
|-3-3-3-3------------------------------------------|
|--------------------------------------------------|
well, that's it, let me know how you like it.
Tap to rate this tab
# A B C D E F G H I J K L M N O P Q R S T U V W X Y Z