Song name
# A B C D E F G H I J K L M N O P Q R S T U V W X Y Z

Fuel - Mistaken tab

                  we've renamed the band to imperial                        beginners, 
heres another song i wrote.ill put the rest on l8r ;)


E)|--------------------7------------------|
B)|------7---7-7-9-10-----10--9h10p9------|
G)|-6-9-------------------------------9-6-|
D)|---------------------------------------|
A)|---------------------------------------|
E)|---------------------------------------|

E)|--------------------7--------------7-9-|
B)|------7---7-7-9-10-----10--9h10p9------|
G)|-6-9-----------------------------------|
D)|---------------------------------------|
A)|---------------------------------------|
E(|---------------------------------------|
Tap to rate this tab
# A B C D E F G H I J K L M N O P Q R S T U V W X Y Z