Song name
# A B C D E F G H I J K L M N O P Q R S T U V W X Y Z

Fuel - Untitled tab

This is my very first tab, and it's most of the song. As far as the solo, solo
chords and a few fills go, you're on your own....

DROP D

intro/ verse
E|------------------------------------------------------------|
B|------------------------------------------------8-----------|
G|---------------8-8-8-8-8-8-----------------8----------------|
D|------------------------------------------------------------|
A|-0-0-0-0-0-0---6-6-6-6-6-6---0-0-0-0-0-0---6----------------|
D|-0-0-0-0-0-0-----------------0-0-0-0-0-0--------------------|

E|------------------------------------------------------------|
B|------------------------------------------------------------|
G|---------------8-8-8-8-8-8-----------------8----------------|
D|------------------------------------------------------------|
A|-0-0-0-0-0-0---6-6-6-6-6-6---0-0-0-0-0-0---6----------------|
D|-0-0-0-0-0-0-----------------0-0-0-0-0-0--------------------|

Prechorus ("and if I could find...")

E|------------------------------------------------------------|
B|-3--3--3--3--------------------------------3----------------|
G|-2--2--2--2----2--2--2--2------------------2--2-------------|
D|-0--0--0--0----2--2--2--2----5--5--5--5----0--0--3--5-------|
A|-0-------------0--0--0--0----5--5--5--5----0--0--3--5-------|
D|-0---------------------------5--5--5--5----0--0--3--5-------|

Chorus ("and bury these things")

E|------------------------------------------------------------|
B|------------------------------------------------------------|
G|------------------------------------------------------------|
D|------------------------------------------------------------|
A|-0-0-0-0-0-0----10-10-10----0-0-0-0-0-0----10-9-7-----------|
D|-0-0-0-0-0-0----10-10-10----0-0-0-0-0-0----10-9-7-----------|

If you have any questions, comments, additions, corrections, or just wanna say
hi, E-mail me at derekcleary92584@yahoo.com
Tap to rate this tab
# A B C D E F G H I J K L M N O P Q R S T U V W X Y Z