Song name
# A B C D E F G H I J K L M N O P Q R S T U V W X Y Z

Fuel - Bittersweet tab

Help us improve GuitareTab! Take a short survey!
Performed by Fuel (live)
Written by Fuel



Tabbed by Bill Robinson and Lynn MacKinnon





This Song is the unreleased version of Bittersweet(acoutic) which can be played with one or two guitars. If your playing with just one guitar follow gtr1 tab but if your lucky enough to find to hardcore Fuel fans to play with, it sounds SWEET



Chords


   Cmaj7 Amaj7   E    Bm7*   A    Em    G7     C     D    A#/Bb
e-|--0-----0-----0-----2-----0-----0-----1-----0-----2-----0
B-|--0-----2-----0-----0-----2-----0-----0-----1-----3-----3
G-|--0-----1-----1-----2-----2-----0-----0-----0-----2-----3
D-|--2-----2-----2-----0-----2-----2-----0-----2-----0-----3
A-|--3-----x-----2-----2-----0-----2-----2-----3-----x-----0
E-|--x-----x-----0-----0-----x-----0-----3-----x-----x-----x




Intro

gtr2
   Cmaj7              Amaj7               E                          Cmaj7                                   

gtr1
e-|-7--7--7--7--8--7--10--10--10--10--10--8--8--7--7--7--7--7--8--7--5--3--3--5-
B-|-----------------------------------------------------------------------------
G-|-----------------------------------------------------------------------------
D-|-----------------------------------------------------------------------------
A-|-----------------------------------------------------------------------------
E-|-----------------------------------------------------------------------------

                         Bm7*           A   
                
e-|-3--3--3--2--2--3--2--0--------0------------------
B-|-------------------------3--3-----3--2--2--2--2--2
G-|--------------------------------------------------
D-|--------------------------------------------------
A-|--------------------------------------------------
E-|--------------------------------------------------



gtr1 - main riff


     Em          G7           C               D

e-|--0----0----1---1---0---0---0---0---0---2--2--2--
B-|--0----0----0---0---1---1---1---1---1---3--3--3--
G-|--0----0----0---0---0---0---0---0---0---2--2--2--
D-|--2----2----0---0---2---2---2---2---2---0--0--0--
A-|--2----2----2---2---3---3---3---3---3---x--x--x--
E-|--0----0----3---3---x---x---x---x---x---x--x--x--


gtr2 - brigde (plays with main riff)

e-|-------------------------------------------------
B-|-------------------------------------------------
G-|-------------------------------------------------
D-|--------------------7---7---7---7---7---8--8--7-- <--line up with the C and D chords
A-|-------------------------------------------------
E-|-------------------------------------------------


gtr2 - after verse 2 (plays with main riff)

e-|--15----15----15----15----14----14----14----14--- <----steady beat
B-|-------------------------------------------------
G-|-------------------------------------------------
D-|-------------------------------------------------
A-|-------------------------------------------------
E-|-------------------------------------------------




gtr1 - "in this bittersweet riff"

         A          A#/Bb   A
e-|--0--------0---0-0--0-0---0---0
B-|--2--------2---2~3--3~2---2---2
G-|--2--------2---2~3--3~2---2---2
D-|--2--------2---2~3--3~2---2---2
A-|--0--------0---0-0--0-0---0---0
E-|--x--------x---x-x--x-x---x---x


gtr2 - second chorus (with in this bittersweet riff)

e-|--9--------9---9~10-10~9--9---9
B-|-------------------------------
G-|-------------------------------
D-|-------------------------------
A-|-------------------------------
E-|-------------------------------



ok 1..2...1..2..3..4

{intro}

{main riff} x2 + {bridge} for gtr2 

Em            G7
Seven sin of wantonness and

C                 D
Everything that's good is gone

Em          G7                C        D
Sell it for glory from the peers

Em        G7                    C
Silicone priestess scratch the back and

     D
Twist the knife to bone

Em                G7	                 C       D
Kick against the pricks and scrape the shins

A                A#/Bb    A                 Em
   I'm the enemy           in the enemies now


{chorus}

G7          C          D
Swallowed the pill

Em     G7            C         D  
      And drank to the fill

           Em        G7   C     D          
All these things I carry now


A                  A#/Bb   A
  In this bittersweet .....In this bittersweet now



Try to hold the world there sinking
Swimming in a paper cup
Try to own the one beneath the skin
Held up to the flames still singeing
Skin begins to draw and tuck
Never told theres not a chance to win

What couldn't be, wouldn't be now

G7          C          D
Swallowed the pill

Em     G7            C        D
       And drank to the fill

         Em          G7    C   D
All these things I carry now

A                   A#/Bb   A
  In this bittersweet .... in this bittersweet now

Hold your hand up to the sky and try
So hard to rise above
But everything is beating down


{chorus}
G7
Swallowed the pill
And drank to the fill
All these things I carry now
In this bittersweet now



Another look


gtr1				gtr2
{intro}				{intro} (chord part)
{main riff} x 2			{bridge} x 2
{main riff} x 4			{main riff} x 4 (softly)
{bittersweet}			{bittersweet} (softly)
{main riff}			{main riff} (softly)
{bittersweet}			{bittersweet} (softly)
{main riff} x 2			{bridge} x 2
{main riff} x 4			{beat a} x 4
{bittersweet}			{beat b}
{main riff}			{beat a}
{bittersweet}			{beat b}
{intro}				{intro} (chord part)



Related for Bittersweet tab