Guitaretab - guitar tabs
Song name
# A B C D E F G H I J K L M N O P Q R S T U V W X Y Z
Home / F / Fuel / Shimmer tab

Fuel - Shimmer tab

Fuel-Shimmer

Key:
/ = Slide
~ = Let Ring
X = Mute

Intro x4                             0:00
e|-0----0---0-0-0--0--0---0---0-0-0-0-0-| 
B|-5----5---5-5-5--5/-7---7---7-7-7-8-7-| 
G|-0----0---0-0-0--0--0---0---0-0-0-0-0-|
D|-5----5---5-5-5--5/-7---7---7-7-7-7-7-|
A|-3----3---3-3-3--3/-5---5---5-5-5-5-5-|
E|--------------------------------------|
                                                                    
Verse x2                                        0:17
e|-0--0---0-x--0----0----0--0--0-0---0--0---x--x---| 
B|-5--5---5-x--7----8----8--8--8-8---7--7---x--x---| 
G|-0--0---0-x--0----0----0--0--0-0---0--0---x--x---| 
D|-5--5---5-x--7----9----9--9--9-9---7--7---x--x---| 
A|-3--3---3-x--5----7----7--7--7-7---5--5---x--x---| 
E|-------------------------------------------------| 

Intro x1                             0:25
e|-0----0---0-0-0--0--0---0---0-0-0-0-0-| 
B|-5----5---5-5-5--5/-7---7---7-7-7-8-7-| 
G|-0----0---0-0-0--0--0---0---0-0-0-0-0-|
D|-5----5---5-5-5--5/-7---7---7-7-7-7-7-|
A|-3----3---3-3-3--3/-5---5---5-5-5-5-5-|
E|--------------------------------------|                            
          
Bridge x1                               0:30
e|-0----0---0-0-0--0--0--0--0-0-0-0--0---0~| 
B|-5----5---5-5-5--5/-7--7--7-7-7-7--7---7~| 
G|-0----0---0-0-0--0--0--0--0-0-0-0--0---0~| 
D|-5----5---5-5-5--5/-7--7--7-7-7-7--7---7~| 
A|-3----3---3-3-3--3/-5--5--5-5-5-5--5---5~| 
E|----------------------------------------~| 
                                                                      
Chorus                                                                 0:36
e|---------0----0----0--0-0----------3---3----3---3--------2----2--0--0---|
B|---------0----1----1--1-1----------3---3----3---3--------3----3--0--1---| 
G|-0-------0----2----2--2-2----------0---0----0---2--------2----2--0--2---| 
D|-2-------2----2----2--2-2----------2---2----2---0--------0----0--0--2---| 
A|-2-------2----0----0--0-0---2------3---3----3-----------------------0---| 
E|-0-------0--------------------------------------------------------------| 
                                                                        

E|-0--0------3--3---3-3---3----3-------------------| 
B|-1--1--0---3--3---3-3---3----3-------------------| 
G|-2--2--0---0--0---0-0---0----0-------------------| 
D|-2--2--0---2--2---2-2---2----2-------------------| 
A|-0--0--2---3--3---3-3---3----3-------------------| 
E|-------------------------------------------------|

Intro x2                             0:53
e|-0----0---0-0-0--0--0---0---0-0-0-0-0-| 
B|-5----5---5-5-5--5/-7---7---7-7-7-8-7-| 
G|-0----0---0-0-0--0--0---0---0-0-0-0-0-|
D|-5----5---5-5-5--5/-7---7---7-7-7-7-7-|
A|-3----3---3-3-3--3/-5---5---5-5-5-5-5-|
E|--------------------------------------|  

Intro x4 (Distortion)                1:01
e|-0----0---0-0-0--0--0---0---0-0-0-0-0-| 
B|-5----5---5-5-5--5/-7---7---7-7-7-8-7-| 
G|-0----0---0-0-0--0--0---0---0-0-0-0-0-|
D|-5----5---5-5-5--5/-7---7---7-7-7-7-7-|
A|-3----3---3-3-3--3/-5---5---5-5-5-5-5-|
E|--------------------------------------|

Verse x2                                        1:18
e|-0--0---0-x--0----0----0--0--0-0---0--0---x--x---| 
B|-5--5---5-x--7----8----8--8--8-8---7--7---x--x---| 
G|-0--0---0-x--0----0----0--0--0-0---0--0---x--x---| 
D|-5--5---5-x--7----9----9--9--9-9---7--7---x--x---| 
A|-3--3---3-x--5----7----7--7--7-7---5--5---x--x---| 
E|-------------------------------------------------| 
[ Tab from: http://www.guitaretab.com/f/fuel/6754.html ]
Intro x1                             1:26
e|-0----0---0-0-0--0--0---0---0-0-0-0-0-| 
B|-5----5---5-5-5--5/-7---7---7-7-7-8-7-| 
G|-0----0---0-0-0--0--0---0---0-0-0-0-0-|
D|-5----5---5-5-5--5/-7---7---7-7-7-7-7-|
A|-3----3---3-3-3--3/-5---5---5-5-5-5-5-|
E|--------------------------------------|

Bridge x1                               1:31
e|-0----0---0-0-0--0--0--0--0-0-0-0--0---0~| 
B|-5----5---5-5-5--5/-7--7--7-7-7-7--7---7~| 
G|-0----0---0-0-0--0--0--0--0-0-0-0--0---0~| 
D|-5----5---5-5-5--5/-7--7--7-7-7-7--7---7~| 
A|-3----3---3-3-3--3/-5--5--5-5-5-5--5---5~| 
E|----------------------------------------~| 

Chorus                                                                 1:37
e|---------0----0----0--0-0----------3---3----3---3--------2----2--0--0---|
B|---------0----1----1--1-1----------3---3----3---3--------3----3--0--1---| 
G|-0-------0----2----2--2-2----------0---0----0---2--------2----2--0--2---| 
D|-2-------2----2----2--2-2----------2---2----2---0--------0----0--0--2---| 
A|-2-------2----0----0--0-0---2------3---3----3-----------------------0---| 
E|-0-------0--------------------------------------------------------------| 
                                                                        

E|-0--0------3--3---3-3---3----3-------------------| 
B|-1--1--0---3--3---3-3---3----3-------------------| 
G|-2--2--0---0--0---0-0---0----0-------------------| 
D|-2--2--0---2--2---2-2---2----2-------------------| 
A|-0--0--2---3--3---3-3---3----3-------------------| 
E|-------------------------------------------------|

Intro x2 (Clean)                     1:54
e|-0----0---0-0-0--0--0---0---0-0-0-0-0-| 
B|-5----5---5-5-5--5/-7---7---7-7-7-8-7-| 
G|-0----0---0-0-0--0--0---0---0-0-0-0-0-|
D|-5----5---5-5-5--5/-7---7---7-7-7-7-7-|
A|-3----3---3-3-3--3/-5---5---5-5-5-5-5-|
E|--------------------------------------|  

Verse x3 (Distorted)                            2:02
e|-0--0---0-x--0----0----0--0--0-0---0--0---x--x---| 
B|-5--5---5-x--7----8----8--8--8-8---7--7---x--x---| 
G|-0--0---0-x--0----0----0--0--0-0---0--0---x--x---| 
D|-5--5---5-x--7----9----9--9--9-9---7--7---x--x---| 
A|-3--3---3-x--5----7----7--7--7-7---5--5---x--x---| 
E|-------------------------------------------------|

Interlude x4 (Clean)                            2:20
E|-2---------5---4---------4--------------2--------|
A|-3-----------------3----------3---------3--------|
D|-2---------------------2----------2-----2--------|   
G|-0--------------------------------------0--------|
B|-------------------------------------------------|
E|-------------------------------------------------|

Verse x8 (Distorted)                            2:36
e|-0--0---0-x--0----0----0--0--0-0---0--0---x--x---| 
B|-5--5---5-x--7----8----8--8--8-8---7--7---x--x---| 
G|-0--0---0-x--0----0----0--0--0-0---0--0---x--x---| 
D|-5--5---5-x--7----9----9--9--9-9---7--7---x--x---| 
A|-3--3---3-x--5----7----7--7--7-7---5--5---x--x---| 
E|-------------------------------------------------| 
                                      
Outro                                           3:11
E|-0---------------------3-------------------------|
B|-7---------------------3-------------------------|
G|-0---------------------0-------------------------|
D|-7---------------------2-------------------------| 
A|-5---------------------3-------------------------| 
E|-------------------------------------------------|

And thats it, not sure about some parts such as the Chorus.
But its the best tab so far.
Tabbed by some people but rearranged and timed and tidied
by a 16 year old Australian boy whos been playing for
8 months (Me).

Rob

Related for Shimmer tab
Shimmer chords by Fuel