Song name
# A B C D E F G H I J K L M N O P Q R S T U V W X Y Z

Fugazi - Bad Mouth tab

Fugazi
Bad Mouth

Main Riff

E|-------------|-----------|-------------|-------------|
B|-------------|-----------|-------------|-------------|
G|-------------|-----------|-------------|-------------|
D|-------------|-----------|-------------|-------------|
A|-------4-4-4-|-5~--------|-------4-4-4-|-5-5-5-4-~---|
E|-0-0-0-------|-----------|-0-0-0-------|-------------|

Pre-verse

E|---------|---------|---------|--------|
B|---------|---------|---------|--------|
G|---------|---------|---------|--------|
D|-9-9-9-9-|---------|---------|-#-#-7~-|
A|-7-7-7-7-|-7-7-7-7-|-9-9-9-9-|-#-#-7~-|
E|---------|-5-5-5-5-|-7-7-7-7-|-#-#-5~-|

Verse (palm-muted)
I think these are played as 16ths but I couldn't be bothered 
to type them all out, they might also be played as powerchords

E|---------|---------|---------|-------------------------|
B|---------|---------|---------|-------------------------|
G|---------|---------|---------|-------------------------|
D|---------|---------|---------|----11----11----11----11-|
A|-7-7-7-7-|---------|---------|-12----12----12----12----|
E|---------|-5-5-5-5-|-7-7-7-7-|-------------------------|

It does this every so often:

E|---------|---------|---------|----------|
B|---------|---------|---------|----------|
G|---------|---------|---------|----------|
D|---------|---------|---------|-#-7-#-7~-|
A|-7-7-7-7-|---------|---------|-#-7-#-7~-|
E|---------|-5-5-5-5-|-7-7-7-7-|-#-5-#-5~-|

Bridge
Pretty unsure about this bit, it's something like this though

E|-------------------------------|-----------------|
B|-------------------------------|-----------------|
G|-------------------------------|-----------------|
D|-------------------------------|-----------------|
A|-4-4-4-3-3-3-2-2-2-1-1-1-0-0-0-|-0-0-0-0-5-5-5-5-|
E|-------------------------------|-----------------|

Finish on the Main riff
Tap to rate this tab
# A B C D E F G H I J K L M N O P Q R S T U V W X Y Z