Song name
# A B C D E F G H I J K L M N O P Q R S T U V W X Y Z

Fugees - No Woman No Cry tab

This is my first tab so sorry if I mess it up.

(standard tuning)

Intro:

            A dedication to all the refugees worldwide
    C      G          Am
E|--0------1----------0-------------|
B|--1------0----------1-------------|
G|--0------0----------2-------------|
D|--2------0----------2-0-2-3-2-----|
A|3-3------2--2-2^3-0-----------3---|
E|-----1^3-3------------------------|
                       say, say, say
    C      G          Am
E|--0------1----------0-------------|
B|--1------0----------1-------------|
G|--0------0----------2-------------|
D|--2------0----------2-0-2-3-2-----|
A|--3------2--2-2^3-0-----------3-3-|
E|-----1^3-3------------------------|

     i remember    when we used to sit
    C      G          Am
E|--0------1----------0-------------|
B|--1------0----------1-------------|
G|--0------0----------2-------------|
D|--2------0----------2-0-2-3-2-----|
A|--3------2--2-2^3-0-----------3-3-|
E|-----1^3-3------------------------|

     in a government yard in brooklyn
    C      G          Am
E|--0------1----------0-------------|
B|--1------0----------1-------------|
G|--0------0----------2-------------|
D|--2------0----------2-0-2-3-2-----|
A|--3------2--2-2^3-0-----------3-3-|
E|-----1^3-3------------------------|

   rememba observing the crookedness
    C      G          Am
E|--0------1----------0-------------|
B|--1------0----------1-------------|
G|--0------0----------2-------------|
D|--2------0----------2-0-2-3-2-----|
A|--3------2--2-2^3-0-----------3-3-|
E|-----1^3-3------------------------|

as it mingled with the good people we meet
    C      G          Am
E|--0------1----------0-------------|
B|--1------0----------1-------------|
G|--0------0----------2-------------|
D|--2------0----------2-0-2-3-2-----|
A|--3------2--2-2^3-0-----------3-3-|
E|-----1^3-3------------------------|

good friends we had, good friends we lost
    C      G          Am
E|--0------1----------0-------------|
B|--1------0----------1-------------|
G|--0------0----------2-------------|
D|--2------0----------2-0-2-3-2-----|
A|--3------2--2-2^3-0-----------3-3-|
E|-----1^3-3------------------------|

             along the way
    C      G          Am
E|--0------1----------0-------------|
B|--1------0----------1-------------|
G|--0------0----------2-------------|
D|--2------0----------2-0-2-3-2-----|
A|--3------2--2-2^3-0-----------3-3-|
E|-----1^3-3------------------------|

in this great future you cant forget your past
    C      G          Am
E|--0------1----------0-------------|
B|--1------0----------1-------------|
G|--0------0----------2-------------|
D|--2------0----------2-0-2-3-2-----|
A|--3------2--2-2^3-0-----------3-3-|
E|-----1^3-3------------------------|

  so dry your tears, i say and to my peeps who passed away
    C      G          Am
E|--0------1----------0-------------|
B|--1------0----------1-------------|
G|--0------0----------2-------------|
D|--2------0----------2-0-2-3-2-----|
A|---------2--2-2^3-0-----------3-3-|
E|-----1^3-3------------------------|

Chorus:

    C   Am7   Am   F    C
E|--0-----0-----0-----1---0-------0-|
B|--1-----1-----1-----0---1-------0-|
G|--0-----0-----2-----2---0-------0-|
D|--2-----2-----2-----3---2-2-3-2-2-|
A|--3---------------------3-------3-|
E|----------------------------------|

    C   Am7   Am   F    C
E|--0-----0-----0-----1---0-------0-|
B|--1-----1-----1-----0---1-------0-|
G|--0-----0-----2-----2---0-------0-|
D|--2-----2-----2-----3---2-2-3-2-2-|
A|--3---------------------3-------3-|
E|----------------------------------|

This is as far as i was willing to go tonight i will finish it later hope it helps. :)
if anyone has any corrections or is 100% sure on any correct tabs for this song please 
in a comment.
Tap to rate this tab
# A B C D E F G H I J K L M N O P Q R S T U V W X Y Z