Guitaretab - guitar tabs
Song name
# A B C D E F G H I J K L M N O P Q R S T U V W X Y Z

Fugees - No Woman No Cry tab

The Fugees
No Woman, No Cry
Tabbed by: Jake Hohn
Email: HohnJ723@yahoo.com

Tuning: Normal

Intro:

The only difference really is the first note, the rest are the same

     C       G      Am
e|---0-------3-------0------------------------------------------------------------------|
B|---1-------0-------1------------------------------------------------------------------|
G|---0-------0-------2------------------------------------------------------------------|
D|---2-------0-------2-3-3-2-2----------------------------------------------------------|
A|-3-3-------2-2-3-0-0---------3-3------------------------------------------------------|
E|-----0-1-3-3--------------------------------------------------------------------------|

Verse:
[ Tab from: http://www.guitaretab.com/f/fugees/6778.html ]
   C       G       Am
e|-0-------3-------0--------------------------------------------------------------------|
B|-1-------0-------1--------------------------------------------------------------------|
G|-0-------0-------2--------------------------------------------------------------------|
D|-2-------0-------2-3-3-2-2------------------------------------------------------------|
A|-3-------2-2-3-0-0---------3-3--------------------------------------------------------|
E|---0-1-3-3----------------------------------------------------------------------------|

Chorus:

Donít stop the chords immediately after you play them

   C     G     Am          C
e|-0--0--3--3--0--0--0--0--0------------------------|
B|-1--1--0--0--1--1--1--1--1------------------------|
G|-0--0--0--0--2--2--2--2--0------------------------|
D|-2--2--0--0--2--2--2--2--2--2-2\3/2-0-------------|
A|-3--3--2--2--0--0--0--0--3-----------3---0-2---3--|
E|-----3--3------------------------3-----3----------|


Tab Key:
 /  slide up
 \  slide down
===============================================================================

The song is played like this

Intro x1

Verse x10

Chorus x2

Verse x6

1:49 Break - Begin at start of verse riff

Verse  x10

Verse x3

2:58 Stop and then play everything after the C chord in the Chorus

Verse x5

3:30 - 3:36 Break

Verse x2 but the second one stops at C chord in the verse riff. Pick up at the
beginning of verse riff and play until the faded ending.
Related for No Woman No Cry tab