Song name
# A B C D E F G H I J K L M N O P Q R S T U V W X Y Z

Fugees - Fu-gee-la tab

Fugees - Fu-gee-la (Refugee Camp Global Mix) 

Standard Tunning : 

Capo 1st fret: 

verse and chorus : Chords - Am, Em
                                        
E|--------0-----3-2-0----0----------|   
A|--0-------------------------3-2-0-|
D|-----2-----2--------2-----2-------|
G|-----2-----2--------0-----0-------|
B|-----1-----1--------0-----0-------|
e|----------------------------------|

On ocasion the verse ends with 
E|--------0-----3-2-0--0-0-0-0-|
A|--0--------------------------|
D|-----2-----2---------2-2-2-2-|
G|-----2-----2---------0-0-0-0-|
B|-----1-----1-----------------|
e|-----------------------------|

Bridge : Am7 A#m7 Em

E|-------------------------|    |-0-0-0-0-|
A|--0-----1-----0-----1----|    |---------|
D|-----2-----3-----2-----3-| X2 |-2-2-2-2-|
G|-----0-----1-----0-----1-|    |-0-0-0-0-|
B|-----1-----2-----1-----2-|    |---------|
e|-------------------------|    |---------|
Tap to rate this tab
# A B C D E F G H I J K L M N O P Q R S T U V W X Y Z