Song name
# A B C D E F G H I J K L M N O P Q R S T U V W X Y Z

Funeral For A Friend - Roses For The Dead tab

this whole intro is done by tapping
the song is actually played in dropped D# but in standard its one down

so its like

tabbed by Luis Ramirez
:D
please dont rate harshly
first tab and im only 14

s=Slide down

e[-------------------------------------]
B[-----------------------11------------]
G[----11----10------------------10-----]
D[--8-----8-----8-11---8------8--------]
D[6-----6-----6------6------6----------]
E[-------------------------------------]

e[-------------------------------------]
B[-----------------------11------------]
G[----11----10------------------10s11--]
D[--8-----8-----8-11---8------8--------]
D[6-----6-----6------6------6----------]
E[-------------------------------------]

e[-------------------------------------]
B[-----------------------11------------]
G[----11----10------------------10-----]
D[--4-----4-----4-11---4------4--------]
D[2-----2-----2------2------2----------]
E[-------------------------------------]

e[-------------------------------------]
B[-----------------------11------------]
G[----11----10------------------10s11--]
D[--6-----6-----6-11---6------6--------]
D[4-----4-----4------4------4----------]
E[-------------------------------------]
Tap to rate this tab
 
# A B C D E F G H I J K L M N O P Q R S T U V W X Y Z