Guitaretab - guitar tabs
Song name
# A B C D E F G H I J K L M N O P Q R S T U V W X Y Z

Fuzigish - Easy Tiger tab

KIDS IN GLASS HOUSES - EASY TIGER 
TABBED BY GEORGE WILLIAMS 
STANDARD TUNING (EADBGE) 

well this was a request on my "me, me, me" tab, which I
was happy to oblige. so i whipped this up. its all there
and it all works, so just grab your guitar and play =] 
its really easy and took my like a day to finish, so yehh
AND ive been so kind as to give you both guitar parts =]
jeez. well have fun and thanks for looking.

legend: 

| b    bend 
| r    return 
| /    slide up 
| \    slide down 
| h    hammer on 
| p    pull off 
| *    pinch harmonic 
| ~    tremolo 
| ...  palm muted 
| x    muted note 
| (n)  optional note 

BPM: 180


guitar 1 !!!
------------


>INTRO & VERSE<  (0:05)
 - All notes are 8th notes 

|---0--0--0-12-12-12-12-12-0-0-0-0--0--0--0--0-|
|--12-12-12-12-12-12-12-12-0-0-0-0-12-12-12-12-|
|----------------------------------------------|
|----------------------------------------------| PART 1
|----------------------------------------------|
|----------------------------------------------|

|--0--0--0-12-12-12-12-12-0-0-0-0--0--0--0-0-|
|-12-12-12-12-12-12-12-12-0-0-0-0-12-14-12-0-|
|--------------------------------------------|
|--------------------------------------------|
|--------------------------------------------|
|--------------------------------------------|
                                               
|-0-0-0-0-0-0-0-0-0-0-0-0-0-0-2-2-|-0-0-0-0-0-0-0-0-0-0-0-0-4-2-0-0--|
|-0-0-0-0-0-0-0-0-0-0-0-0-0-0-0-0-|-0-0-0-0-0-0-0-0-0-0-0-0-0-0-0-0--|
|---------------------------------|----------------------------------| PART 2
|---------------------------------|----------------------------------|
|---------------------------------|----------------------------------|
|---------------------------------|----------------------------------|

>NIFTY RIFF< (0:35)
 - Let ring all notes on the G and High E strings.
 - You can always just play the original intro, and leave the nifty riff out.
 - it replaces PART 2 of the verse

|-----------------2-----4-----2-(2)-|-----------------2-----4-----0-(0)-|
|---4-----5-2-------2-----2---------|---4-----5-2-------2-----2---------|
|-2---2-2-----2-2-----2-----2-------|-2---2-2-----2-2-----2-----2-------|
|-----------------------------------|-----------------------------------|
|-----------------------------------|-----------------------------------|
|-----------------------------------|-----------------------------------|


>CHORUS<  (0:50)
 - Play these chords in time with the singing.
 - you can add a 7 (an E) on the A string to each chord if you want.

|----------------------------|-----------------|
|----------------------------|-----------------|
|--8-(8)----9--9-(9)---8---8-|----9--9-(9)-----|
|--9-(9)----9--9-(9)---9---9-|----9--9-(9)-----|
|----------------------------|-----------------|
|----------------------------|-----------------|


>BREAK<  (1:12)
 - just strum these. They are all 8th notes.

|-12-12-12-12-12-12-12-12-12-12-12-12-12-12-12-12-|
|-12-12-12-12-12-12-12-12-12-12-12-12-12-12-12-12-|
|-------------------------------------------------|
|-------------------------------------------------|
|-------------------------------------------------|
|-------------------------------------------------|

>REPEAT VERSE<
>REPEAT CHORUS<


>BREAK 2<  (2:20)
 - stab these chords out. make them very short.
|-----------------------------------------------------------------|
|-----------------------------------------------------------------|
|-9---9---9---9---9---9---9---9---9---9---9---9---9---9---9---9---|
|-9---9---9---9---9---9---9---9---9---9---9---9---9---9---9---9---|
|-7---7---7---7---7---7---7---7---7---7---7---7---7---7---7---7---|
|-----------------------------------------------------------------|

>REPEAT NIFTY RIFF<
>REPEAT BREAK 2<
etc.





guitar 2!!!
-----------



>VERSE<  

|---------------------------------|
|---------------------------------|
|-9-9-9-9-9-9-9-9-9-9-9-9-9-9-9-9-| part 1
|-9-9-9-9-9-9-9-9-9-9-9-9-9-9-9-9-| x2
|-7-7-7-7-7-7-7-7-7-7-7-7-7-7-7-7-|
|---------------------------------|

|---------------------------------|
|---------------------------------|
|---------------------------------| part 2
|-9-9-9-9-9-9-9-9-9-9-9-9-9-9-9-9-| x2
|-9-9-9-9-9-9-9-9-9-9-9-9-9-9-9-9-|
|-7-7-7-7-7-7-7-7-7-7-7-7-7-7-7-7-|


>VERSE WITH NIFTY RIFF<
 - use the spacing as a guide to when you stab out the chords.
 - listen to the record to hear when the rhythm changes.
 - on the last part, stab out the last chord.
 - Iíve given you a choice for part 2, you can play whichever part.
[ Tab from: http://www.guitaretab.com/f/fuzigish/154651.html ]
|--------------------------------------------|
|--------------------------------------------|
|-9--9----9--9----9--9----9--9----9--9--9----|
|-9--9----9--9----9--9----9--9----9--9--9----| x2
|-7--7----7--7----7--7----7--7----7--7--7----|
|--------------------------------------------|

|---------------------------------|
|---------------------------------|
|---------------------------------| part 2
|-9-9-9-9-9-9-9-9-9-9-9-9-9-9-9-9-| x2 first time, x1 second time
|-9-9-9-9-9-9-9-9-9-9-9-9-9-9-9-9-|
|-7-7-7-7-7-7-7-7-7-7-7-7-7-7-7-7-|

|-0-0-0-0-0-0-0-0-0-0-0-0-0-0-2-2-|-0-0-0-0-0-0-0-0-0-0-0-0-4-2-0-0--|
|-0-0-0-0-0-0-0-0-0-0-0-0-0-0-0-0-|-0-0-0-0-0-0-0-0-0-0-0-0-0-0-0-0--|
|---------------------------------|----------------------------------| or you could
|---------------------------------|----------------------------------| play this
|---------------------------------|----------------------------------|
|---------------------------------|----------------------------------|

|-----------------------------------|-----------------|
|-----------------------------------|-----------------|
|-----------------------------------|-----------------|
|-9-9-9-9-9-9-9-9-9-9-9-9-9-9-9--9--|-9~~-------------|
|-9-9-9-9-9-9-9-9-9-9-9-9-9-9-9--9--|-9~~-------------| x1 (only on the second) 
|-7-7-7-7-7-7-7-7-7-7-7-7-7-7-7--7--|-7~~-------------|


>CHORUS<
 - play in time with the singing, or chorus for guitar 1.

|----------------------------|-----------------|
|----------------------------|-----------------|
|----------------------------|-----------------|
|--9-(9)----9--9-(9)---9---9-|----9--9-(9)-----| x1
|--7-(7)----7--7-(7)---7---7-|----7--7-(7)-----|
|----------------------------|-----------------|

|----------------------------|-----------------|
|----------------------------|-----------------|
|----------------------------|-----------------|
|----------------------------|-----------------| x1
|--9-(9)----9--9-(9)---9---9-|----9--9-(9)-----|
|--7-(7)----7--7-(7)---7---7-|----7--7-(7)-----|

|----------------------------|-----------------|
|----------------------------|-----------------|
|----------------------------|-----------------|
|----------------------------|-----------------| x2
|--7-(7)----7--7-(7)---7---7-|----7--7-(7)-----|
|--5-(5)----5--5-(5)---5---5-|----5--5-(5)-----|


>BREAK & BREAK 2<

|------------------------|
|------------------------|
|- the same as guitar 1 -|
|------------------------|
|------------------------|
|------------------------|

>VERSE<
>VERSE WITH NIFTY RIFF<
>CHORUS<
>BREAK 2<


>NIFTY RIFF AFTER BREAKS<
 - ordered like this
 - first part x2
 - second part x1

|-----------------|-2-----4-----2-(2)-|-----------------|-2-----4-----0-(0)-|
|---4-----5-2-----|---2-----2---------|---4-----5-2-----|---2-----2---------|
|-2---2-2-----2-2-|-----2-----2-------|-2---2-2-----2-2-|-----2-----2-------|
|-----------------|-------------------|-----------------|-------------------| guitar 1
|-----------------|-------------------|-----------------|-------------------|
|-----------------|-------------------|-----------------|-------------------|
|
|-----------------|-------------------|-----------------|-------------------|
|-----------------|-------------------|-----------------|-------------------|
|-9-9---------9-9-|-------------------|-9-9---------9-9-|-------------------|
|-9-9---------9-9-|-------------------|-9-9---------9-9-|-------------------| guitar 2
|-7-7---------7-7-|-------------------|-7-7---------7-7-|-------------------|
|-----------------|-------------------|-----------------|-------------------|


|-----------------|-2-----4-----2-(2)-|----------------|------|
|---4-----5-2-----|---2-----2---------|----------------|------|
|-2---2-2-----2-2-|-----2-----2-------|----------------|------|
|-----------------|-------------------|----------------|------| guitar 1
|-----------------|-------------------|----------------|------|
|-----------------|-------------------|----------------|------|
|
|-----------------|-------------------|----------------|------|
|-----------------|-------------------|----------------|------|
|-9-9---------9-9-|-------------------|-9-9-9------9-9-|------|
|-9-9---------9-9-|-------------------|-9-9-9------9-9-|------| guitar 2
|-7-7---------7-7-|-------------------|-7-7-7------7-7-|------|
|-----------------|-------------------|----------------|------|

>FINAL CHORUS<
 - for the first part, just strum the chords instead of stabbing them out. 
 - then it reverts to the original chorus.


SONG ORDER:
-----------
INTRO/VERSE
VERSE W.NIFTY RIFF
CHORUS
BREAK
INTRO/VERSE
VERSE W.NIFTY RIFF
CHORUS
BREAK 2
NIFTY RIFF
BREAK 2
NIFTY RIFF
BREAK 2
NIFTY RIFF ENDING SHORT
FINAL CHORUS
Related for Easy Tiger tab