Song name
# A B C D E F G H I J K L M N O P Q R S T U V W X Y Z

Fynn Jamal - Over chords

Highlighted       Show chord diagrams
I spend 3 hours of ma study time to tab dis uh-mey-zing song. haha credit me if 
ure posting on ur site or wutever crap k..enjoy ^_^

Standard Tuning

C
|-----0--------0--------0---|
|--------1--------1---------|
|-----------0--------0------|
|---------------------------|
|--3------------------------|
|---------------------------|

Fmaj7  x03210
|-----0--------0--------0---|
|--------1--------1---------|
|-----------2--------2------|
|--3------------------------|
|---------------------------|
|---------------------------|
-keep plucking these 2 chords-

What more do you want to hear from me?
Is there anything you wish to see?
A joke? A laugh? A smile? A cry?
A scream? A song? A lullaby?

See i know we are not who we were
I live in denial, remember?
So please don't ask me to open my eyes
Don't wanna wake up and realize

G
|--------------3------------|
|-----------0---------------|
|--------0------------------|
|-----0---------------------|
|--2------------------------|
|---------------------------|

The honeymoon's over

Am
|--------------0------------|
|-----------1---------------|
|--------2------------------|
|-----2---------------------|
|--0------------------------|
|---------------------------|

That i should better

Fmaj7

|--------------0------------|
|-----------1---------------|
|--------2------------------|
|-----3---------------------|
|--0------------------------|
|---------------------------|

      C    Fmaj7   (x2)
Be mature

C    Fmaj7
I'm sorry i do not know what to say
Do understand i'm breaking, but hey
When you tell me that you are leaving
Don't think i didnít see it coming

Of course i saw we are no longer
Having stuff we enjoy together
But can we play along our part
                                 G
And not parade this change of heart?
                Am
Are you really sure?
              Fmaj7
That we off better
     C    Fmaj7   (x2)
And over?

C Fmaj7
What more can i say when you wish to leave today
I wont break down now and burst
But
Fmaj7 (pause)
Would you like to have one last breakfast?

C Fmaj7
Of course i saw we are no longer
Having stuff we enjoy together
But can we play along our part
                                 G
And not parade this change of heart?
                Am
Are you really sure?
              Fmaj7
That we off better
     C    Fmaj7
And over?
C Fmaj7 (keep strumming)
Tap to rate this tab
# A B C D E F G H I J K L M N O P Q R S T U V W X Y Z